PrimaNota.ru - самый крупный в мире бесплатный архив песенных текстов, аккордов, табулатур и нот


Maximo Park - The Unshockable - текст песни, таба, видео

Регистрация Запомнить меня
Войти через:  Facebook Google Twitter Vk Yandex Mail.ru

Maximo Park - The Unshockable - текст песни, таба, видео

Печатать
Просмотров: 93
Авторы: Paul Smith, Lukas Wooller, Duncan Lloyd

-------------------------------------------------------------------------------
			     The Unshockable - Maximo Park
-------------------------------------------------------------------------------

Tabbed by: Gunnar Matzen
e-mail: elektroakustik@gmx.de

tuning: standard


Intro/Verse 0:06-0:24

   "The lines of transport.."
   "At any cost name a price"   "Digger through towns..."
   "Pick and choose from..."
e|---------------------------|------------6----8------------------------------|
B|---------------------------|--0-55-0-55---55---55---------------------------|
G|---------------------------|------------------------------------------------|
D|---------------------------|------------------------------------------------|
A|---------------------------|------------------------------------------------|
E|--12~00-7~00-8~00-10~00----|------------------------------------------------|

Pre Chorus1 0:24-0:28

    "Did I make it all up?
e|---------------------------------|
B|---------------------------------|
G|--5-x-5-5-5/7-x-7-7-7------------|
D|--5-x-5-5-5/7-x-7-7-7-7-x-7-7-7--|
A|--3-x-3-3-3/5-x-5-5-5-5-x-7-7-7--|
E|----------------------5-x-5-5-5--|
    + + - - + + + - - + + + - - +

Verse 0:28-0:39

      ^^Same Part as in the Intro/Verse^^

Pre Chorus2 0:39-0:42

   "Scratch away, scrap away, Lacerate
   "Keep scratching!

e|--------------------------------------|
B|--8-x-8-8-8---------------------------|
G|--9-x-9-9-9---play--------------------|
D|--9-x-9-9-9---4-times-----------------|
A|--7-x-7-7-7---------------------------|
E|--------------------------------------|
    + + - - +

Chorus 0:42-0:54

   "Have we become the unshockable..."

e|-----------------------------------------------------------------------------|
B|------------------------------------------8-x-8-8-8--------------------------|
G|--5-x-5-5-5/7-x-7-7-7-7-x-7-7-7-----------9-x-9-9-9-----------5-x-5-5-5/-----|
D|--5-x-5-5-5/7-x-7-7-7-7-x-7-7-7-7-x-7-7-7-9-x-9-9-9-7-x-7-7-7-5-x-5-5-5/-----|
A|--3-x-3-3-3/5-x-5-5-5-5-x-5-5-5-5-x-7-7-7-7-x-7-7-7-5-x-7-7-7-3-x-3-3-3/-----|
E|--------------------------------5-x-5-5-5-----------5-x-5-5-5----------------|
    + + - - + + + - - + + + - - + + + - - + + + - - + + + - - + + + - - +

e|-----------------------|
B|-----------------------|
G|--7-x-7-7-7-7-x-7-7-7--|
D|--7-x-7-7-7-7-x-7-7-7--|
A|--5-x-5-5-5-5-x-5-5-5--|
E|-----------------------|
    + + - - + + + - - +

^^From here I'll only place the correct order and times of the different  parts because 
stay exactly the same the whole song^^

Verse       0:54-1:13
Pre Chorus1 1:13-1:17
Verse       1:17-1:26
Pre Chorus2 1:26-1:31
Chorus      1:31-1:51

Bridge1     1:51-2:13

   "Conceal those thoughts, that ring linger on your breath"

e|---------------------------------------------------------------------|
B|--8-8-7-5-5-5-5-7-5-5-5-5-7---------7-7------------------------------|
G|--9-9-7-5-5-5-5-7-5-5-5-5-7-4-4-4-4-7-7--play-----------------5------|
D|--9-9-7-5-5-5-5-7-5-5-5-5-7-5-5-5-5-7-7--4-times------------5-5-3/5--|
A|--7-7-5-3-3-3-3-5-3-3-3-3-5-5-5-5-5-5-5--and-end-with-this:-5-3-3/5--|
E|----------------------------3-3-3-3-------------------------3---1/3--|
    + + + + + - - + + + - - + + + - - + -                     + - + -

Bridge2   2:13-2:45

   ^^here I play some natural harmonics at the 12th fret
     until the lyrics set in^^
                                    "The lines of transport forge..."

e|------------12n.h---------------|------------------------------------|
B|-------12n.h---------10/12~~~---|------------------------------------|
G|--------------------------------|-------------7----------------------|
D|--------------------------------|--7-9-10---7---9---7-9-10---7-10-9--|
A|--------------------------------|------------------------------------|
E|--------------------------------|------------------------------------|

  "The moods of transport forge their way through towns"

e|----------------------------------------------|
B|----------------------------------------------|
G|-------------------------------------play-----|
D|-------------------------------------2-times--|
A|--7-9-10---7-9-10---7-9-10---7-10-9-----------|
E|----------------------------------------------|

Chorus      2:45-3:06
Intro/Verse 3:06-3:16

End

So, that's it! Hope you enjoy to play this tune^^ Please rate! Thanks

| /   slide up
| \   slide down
| h   hammer-on
| p   pull-off
| ~   vibrato
| +   downstroke
| -   upstroke
| x   Mute note
| n.h natutal harmonic
Добавлено: 24.09.2013
Другие материалы по этой песне:
  • Аккорды и текст

Страница создана 11.03.2012
http://primanota.ru/maximo-park/the-unshockable-chords.htm
Привет, Гость.
Предлагаем пройти революционный курс по гитаре.
Подарок от PrimaNota.Ru, забирай!