PrimaNota.ru - самый крупный в мире бесплатный архив песенных текстов, аккордов, табулатур и нот


Maximo Park - The National Health - текст песни, таба, видео

Регистрация Запомнить меня
Войти через:  Facebook Google Twitter Vk Yandex Mail.ru

Maximo Park - The National Health - текст песни, таба, видео

Печатать
Просмотров: 90
Уроки эстрадного вокала в Санкт-Петербурге
Авторы музыки: Lukas Wooller, Duncan Lloyd
Авторы текста: Paul Smith
The National Health - Maximo Park

Guitar 1 - Rhythm
Guitar 2 - Lead

Intro - 0:00
Guitar 1
E|--------------------------------------------------------| 
B|--------------------------------------------------------| 
G|-7-9-9-9-9-9-9-9-----7-7-9-9-9-9-9-9---7-9-9-9-9-9-9-9--|
D|-7-9-9-9-9-9-9-9--x2-7-7-9-9-9-9-9-9---7-9-9-9-9-9-9-9--| 
A|-5-7-7-7-7-7-7-7-----5-5-7-7-7-7-7-7---5-7-7-7-7-7-7-7--| 
E|--------------------------------------------------------|

E|----------------------------------------------------------| 
B|----------------------------------------------------------| 
G|-5-5-5-7-7-7-7-7-7-7----5-7-7-7-7-7-7-7--7-9-9-9-9-9-9-9--|
D|-5-5-5-7-7-7-7-7-7-7----5-7-7-7-7-7-7-7--7-9-9-9-9-9-9-9--| 
A|-3-3-3-5-5-5-5-5-5-5----3-5-5-5-5-5-5-5--5-7-7-7-7-7-7-7--| 
E|----------------------------------------------------------|

Guitar 2 
E|---------------------------------------------------------------------------|
B|-5-5-5--7-7-7--8-8-8--10-10-10-x2--15-15-15--12-12-12--10-10-10--8-8-8--x2-| 
G|---------------------------------------------------------------------------|
D|---------------------------------------------------------------------------| 
A|---------------------------------------------------------------------------| 
E|---------------------------------------------------------------------------|

Verse 1 - 0:15

Guitar 1
E|--------------------------------------------------------| 
B|--------------------------------------------------------| 
G|-7-9-9-9-9-9-9-9-----7-7-9-9-9-9-9-9---7-9-9-9-9-9-9-9--|
D|-7-9-9-9-9-9-9-9--x2-7-7-9-9-9-9-9-9---7-9-9-9-9-9-9-9--| 
A|-5-7-7-7-7-7-7-7-----5-5-7-7-7-7-7-7---5-7-7-7-7-7-7-7--| 
E|--------------------------------------------------------|

E|------------------------------------------------------------------------------| 
B|------------------------------------------------------------------------------| 
G|-5-5-5-7-7-7-7-7-7-7----5-7-7-7-7-7-7---5-5-5-7-7-7-7-7-7-7----5-7-7-7-7-7-7--|
D|-5-5-5-7-7-7-7-7-7-7----5-7-7-7-7-7-7---5-5-5-7-7-7-7-7-7-7----5-7-7-7-7-7-7--| 
A|-3-3-3-5-5-5-5-5-5-5----3-5-5-5-5-5-5---3-3-3-5-5-5-5-5-5-5----3-5-5-5-5-5-5--| 
E|------------------------------------------------------------------------------|

Guitar 2 - At 0:26 and 0:30
E|--------------------------------|
B|-5-5-5--7-7-7--8-8-8--10-10-10--| 
G|--------------------------------|
D|--------------------------------| 
A|--------------------------------| 
E|--------------------------------|

Pre Chorus - 0:35
Guitar 1
E|-------------------------------------------------------------| 
B|-------------------------------------------------------------| 
G|-8-8-8-8-8-8-8-8--7-7-7-7-7-7-7-7--5-5-5-5-5-5-5-5--2-2-2-2--|
D|-8-8-8-8-8-8-8-8--7-7-7-7-7-7-7-7--5-5-5-5-5-5-5-5--2-2-2-2--| 
A|-6-6-6-6-6-6-6-6--5-5-5-5-5-5-5-5--3-3-3-3-3-3-3-3--0-0-0-0--| 
E|-------------------------------------------------------------|

E|---------------------------| 
B|---------------------------| 
G|-2-4-------2-4--5-7--------|
D|-2-4-------2-4--5-7--------| 
A|-0-2-------0-2--3-5--------| 
E|---------------------------|

Chorus - 0:45
Guitar 1
E|--------------------------------------------------------------------| 
B|--------------------------------------------------------------------| 
G|-9-9-9-9-9-9-9-9--12-12-12-12-12-12-12-12--7-7-7-7--9-9-9-9--7-7-7-7|
D|-9-9-9-9-9-9-9-9--12-12-12-12-12-12-12-12--7-7-7-7--9-9-9-9--7-7-7-7| x2
A|-7-7-7-7-7-7-7-7--10-10-10-10-10-10-10-10--5-5-5-5--7-7-7-7--5-5-5-5| 
E|--------------------------------------------------------------------|

E|-------------------------------------------------------------------| 
B|-------------------------------------------------------------------| 
G|-5-5-5-5-5-5-5-5--7-7-7-7-7-7-7-7--7-9-9-9-9-9-9-9--7-9-9-9-9-9-9-9|
D|-5-5-5-5-5-5-5-5--7-7-7-7-7-7-7-7--7-9-9-9-9-9-9-9--7-9-9-9-9-9-9-9| 
A|-3-3-3-3-3-3-3-3--5-5-5-5-5-5-5-5--5-7-7-7-7-7-7-7--5-7-7-7-7-7-7-7| 
E|-------------------------------------------------------------------|

Guitar 2 - At 1:10
E|--------------------------------|
B|-5-5-5--7-7-7--8-8-8--10-10-10--| 
G|--------------------------------|
D|--------------------------------|  x2 
A|--------------------------------| 
E|--------------------------------|


Verse 2 - 1:16
Guitar 1
E|--------------------------------------------------------| 
B|--------------------------------------------------------| 
G|-7-9-9-9-9-9-9-9-----7-7-9-9-9-9-9-9---7-9-9-9-9-9-9-9--|
D|-7-9-9-9-9-9-9-9--x2-7-7-9-9-9-9-9-9---7-9-9-9-9-9-9-9--| 
A|-5-7-7-7-7-7-7-7-----5-5-7-7-7-7-7-7---5-7-7-7-7-7-7-7--| 
E|--------------------------------------------------------|

E|------------------------------------------------------------------------------| 
B|------------------------------------------------------------------------------| 
G|-5-5-5-7-7-7-7-7-7-7----5-7-7-7-7-7-7---5-5-5-7-7-7-7-7-7-7----5-7-7-7-7-7-7--|
D|-5-5-5-7-7-7-7-7-7-7----5-7-7-7-7-7-7---5-5-5-7-7-7-7-7-7-7----5-7-7-7-7-7-7--| 
A|-3-3-3-5-5-5-5-5-5-5----3-5-5-5-5-5-5---3-3-3-5-5-5-5-5-5-5----3-5-5-5-5-5-5--| 
E|------------------------------------------------------------------------------|

Pre Chorus 2 - 1:35
Guitar 1
E|-----------------------------------------------------------------| 
B|-----------------------------------------------------------------| 
G|-8-8-8-8-8-8-8-8--7-7-7-7-7-7-7-7--5-5-5-5-5-5-5-5--2-2-2-2------|
D|-8-8-8-8-8-8-8-8--7-7-7-7-7-7-7-7--5-5-5-5-5-5-5-5--2-2-2-2------| 
A|-6-6-6-6-6-6-6-6--5-5-5-5-5-5-5-5--3-3-3-3-3-3-3-3--0-0-0-0------| 
E|-----------------------------------------------------------------|

Chorus - 1:40
Guitar 1
E|--------------------------------------------------------------------| 
B|--------------------------------------------------------------------| 
G|-9-9-9-9-9-9-9-9--12-12-12-12-12-12-12-12--7-7-7-7--9-9-9-9--7-7-7-7|
D|-9-9-9-9-9-9-9-9--12-12-12-12-12-12-12-12--7-7-7-7--9-9-9-9--7-7-7-7| x2
A|-7-7-7-7-7-7-7-7--10-10-10-10-10-10-10-10--5-5-5-5--7-7-7-7--5-5-5-5| 
E|--------------------------------------------------------------------|

E|---------------------------------------------------------| 
B|---------------------------------------------------------| 
G|-5-5-5-5--7-7-7-7------7-9-9-9-9-9-9-9--7-9-9-9-9-9-9-9--|
D|-5-5-5-5--7-7-7-7--x3--7-9-9-9-9-9-9-9--7-9-9-9-9-9-9-9--| 
A|-3-3-3-3--5-5-5-5------5-7-7-7-7-7-7-7--5-7-7-7-7-7-7-7--| 
E|---------------------------------------------------------|

Guitar 2 - At 2:00
E|--------------------------------------|
B|-5--7--8--10-----------5--7-----------| 
G|--------------------------------------|
D|--------------------------------------| 
A|--------------------------------------| 
E|--------------------------------------|

At 2:08
E|---------------------------------|
B|-5-5-5--7-7-7--8-8-8--10-10-10---| 
G|---------------------------------|
D|---------------------------------|  x2 
A|---------------------------------| 
E|---------------------------------|

Bridge - 2:13
E|---------------------------| 
B|---------------------------| 
G|-2-4-----2--4--5--7--------|
D|-2-4-x2--2--4--5--7--------| 
A|-0-2-----0--2--3--5--------| 
E|---------------------------|

Solo - Haven't figured this out yet
Guitar 1
E|----------------------------------| 
B|----------------------------------| 
G|-9-9-9-9-9-9-9---7-9-9-9-9-9-9-9--|
D|-9-9-9-9-9-9-9---7-9-9-9-9-9-9-9--| 
A|-7-7-7-7-7-7-7---5-7-7-7-7-7-7-7--| 
E|----------------------------------|

Verse 3 - 2:25
Guitar 1
E|---------------------| 
B|---------------------| 
G|-7-9-9-9-9-9-9-9-----|
D|-7-9-9-9-9-9-9-9--x2-| 
A|-5-7-7-7-7-7-7-7-----| 
E|---------------------|

E|-----------------------------------------| 
B|-----------------------------------------| 
G|-5-5-5-7-7-7-7-7-7-7----5-7-7-7-7-7-7----|
D|-5-5-5-7-7-7-7-7-7-7----5-7-7-7-7-7-7----| x2 
A|-3-3-3-5-5-5-5-5-5-5----3-5-5-5-5-5-5----| 
E|-----------------------------------------|

Outro - 2:40
Guitar 1
E|----------------------------| 
B|----------------------------| 
G|-5-5-5-5--7-7-7-7------7-9--|
D|-5-5-5-5--7-7-7-7--x3--7-9--| 
A|-3-3-3-3--5-5-5-5------5-7--| 
E|----------------------------|

Guitar 2
E|-----------------------------------------------------------------------|
B|-5-5-5-5--7-7-7-7--8-8-8-8--10-10-10-10--12-12-12-12--15-15-15-15--17--| 
G|-----------------------------------------------------------------------|
D|-----------------------------------------------------------------------|   
A|-----------------------------------------------------------------------| 
E|-----------------------------------------------------------------------|
Добавлено: 07.11.2013
Другие материалы по этой песне:
  • Аккорды и текст

Страница создана 07.11.2013
http://primanota.ru/maximo-park/the-national-health-chords.htm
Привет, Гость.
Предлагаем пройти революционный курс по гитаре.
Подарок от PrimaNota.Ru, забирай!