PrimaNota.ru - самый крупный в мире бесплатный архив песенных текстов, аккордов, табулатур и нот


Maximo Park - Stray Talk - текст песни, таба, видео

Регистрация Запомнить меня
Войти через:  Facebook Google Twitter Vk Yandex Mail.ru

Maximo Park - Stray Talk - текст песни, таба, видео

Печатать
Просмотров: 101
Уроки эстрадного вокала в Санкт-Петербурге
Авторы музыки: Paul Smith, Duncan Lloyd

Maximo Park
Stray Talk

Tabbed by Monkey_Guy
monkey_guy50@hotmail.com


    Verse 1:
E-----------------------------------------------------------------------|
B-----------------------------------------------------------------------|
G---12--12-----12------12-----12------12-----12------12-----12----------|
D---14--14-----14------14-----14------14-----14------14-----14----------|
A-----------------------------------------------------------------------|
E---12-------------12-------------12-------------12-------------8-------|

E----------------------------------------------------|------------------|
B----------------------------------------------------|------------------|
G---9------9------9------9------5-----5-----5-----5--|------------------|
D---10-----10-----10-----10-----7-----7-----7-----7--|------------------|
A----------------------------------------------------|------------------|
E--------------8-------------5-----------5-----------|------------------|


At some points during the verse, the x-x-14-12-x-x is played x-x-x-12-12-x


    Pre-Chorus:       Chorus:
E---------------7--|--8------3-----8---3-----1--1--1--1--|----------------|
B---------------7--|--8------3-----8---3-----1--1--1--1--|----------------|
G---------------8--|--9------4-----9---4-----2--2--2--2--|----------------|
D---------------9--|--10-----5-----10--5-----3--3--3--3--|----------------|
A---------------9--|--10-----5-----10--5-----3--3--3--3--|----------------|
E---8--7--5--3--7--|--8------3-----8---3-----1--1--1--1--|----------------|


    Verse 2:
E-----------------------------------------------------------------------|
B-----------------------------------------------------------------------|
G---12--12-----12------12-----12------12-----12------12-----12----------|
D---14--14-----14------14-----14------14-----14------14-----14----------|
A-----------------------------------------------------------------------|
E---12-------------12-------------12-------------12-------------8-------|

E----------------------------------------------------|------------------|
B----------------------------------------------------|------------------|
G---9------9------9------9------5-----5-----5-----5--|------------------|
D---10-----10-----10-----10-----7-----7-----7-----7--|------------------|
A----------------------------------------------------|------------------|
E--------------8-------------5-----------5-----------|------------------|


The lead guitar line plays in the second half of the second verse.


    Lead Guitar:
E-----------------------------------------------------------------------|
B---7--8--10--8--7--8--7-------------------------7h8p7------------------|
G-------------------------9--7--------------------------9--7--9---------|
D-------------------------------9--10-----10----------------------------|
A-----------------------------------------------------------------------|
E-----------------------------------------------------------------------|

                         Bridge:
E---------------------|--0-----2-----0-----2----------------------------|
B---------------------|--0-----3-----0-----3-----5--5--5--5--5--5--5----|
G---7-----------------|--0-----2-----0-----2-----5--5--5--5--5--5--5----|
D------9--7-----------|--2-----0-----2-----0-----5--5--5--5--5--5--5----|
A---------------9--7--|--2-----------2-----------3--3--3--3--3--3--3----|
E---------------------|--0-----------0----------------------------------|

E-----------------------------------------------------------------------|
B---5-----3--3--3--3--3--3--3--3-----5--5--5--5--5--5--5--5-----3--3----|
G---5-----4--4--4--4--4--4--4--4-----5--5--5--5--5--5--5--5-----4--4----|
D---5-----4--4--4--4--4--4--4--4-----5--5--5--5--5--5--5--5-----4--4----|
A---3-----2--2--2--2--2--2--2--2-----3--3--3--3--3--3--3--3-----2--2----|
E-----------------------------------------------------------------------|

E-----------------------------------------------------------------------|
B---3--3--3--3--3--3-----5--5--5--5--5--5--5--5-----3--3--3--3--3--3----|
G---4--4--4--4--4--4-----5--5--5--5--5--5--5--5-----4--4--4--4--4--4----|
D---4--4--4--4--4--4-----5--5--5--5--5--5--5--5-----4--4--4--4--4--4----|
A---2--2--2--2--2--2-----3--3--3--3--3--3--3--3-----2--2--2--2--2--2----|
E-----------------------------------------------------------------------|

E-----------------------------------------------------------------------|
B---3--3-----5--5--5--5--5--5--5--5-----3--3--3--3--3--3--3--3----------|
G---4--4-----5--5--5--5--5--5--5--5-----4--4--4--4--4--4--4--4----------|
D---4--4-----5--5--5--5--5--5--5--5-----4--4--4--4--4--4--4--4----------|
A---2--2-----3--3--3--3--3--3--3--3-----2--2--2--2--2--2--2--2----------|
E-----------------------------------------------------------------------|

E---8---7--5--3--7--|---------------------------------------------------|
B---8---7--5--3--7--|---------------------------------------------------|
G---9---8--6--4--8--|---------------------------------------------------|
D---10--9--7--5--9--|---------------------------------------------------|
A---10--9--7--5--9--|---------------------------------------------------|
E---8---7--5--3--7--|---------------------------------------------------|


    Pre-Chorus:       Chorus:
E---------------7--|--8------3-----8---3-----1--1--1--1--|----------------|
B---------------7--|--8------3-----8---3-----1--1--1--1--|----------------|
G---------------8--|--9------4-----9---4-----2--2--2--2--|----------------|
D---------------9--|--10-----5-----10--5-----3--3--3--3--|----------------|
A---------------9--|--10-----5-----10--5-----3--3--3--3--|----------------|
E---8--7--5--3--7--|--8------3-----8---3-----1--1--1--1--|----------------|


And that's it, feel free to comment.
Добавлено: 12.06.2013
Другие материалы по этой песне:
  • Аккорды и текст

Страница создана 18.04.2012
http://primanota.ru/maximo-park/stray-talk-chords.htm
Привет, Гость.
Предлагаем пройти революционный курс по гитаре.
Подарок от PrimaNota.Ru, забирай!