PrimaNota.ru - самый крупный в мире бесплатный архив песенных текстов, аккордов, табулатур и нот


Maxence Cyrin - Where is my mind - таба, видео

Регистрация Запомнить меня
Войти через:  Facebook Google Twitter Vk Yandex Mail.ru

Maxence Cyrin - Where is my mind - таба, видео

Печатать
Просмотров: 556
Уроки эстрадного вокала в Санкт-Петербурге
Авторы музыки: Black Francis, Charles Michael Kittridge Thompson IV
Авторы текста: Black Francis
Guitar arrangement for Maxence Cyrin's Piano arrangement of the Pixies' Where Is My Mind?

Melody:

Intro
|-----16----16----16----16-|
|--17----17----17----17----|
|--------------------------|
|--------------------------| x 2
|--------------------------|
|--------------------------|

Riff
|-----16----16----16----16----16----16----------------16-| 
|--17----17----17----17----16----16----16-17-17-16-17----|
|--------------------------------------------------------|
|--------------------------------------------------------|
|--------------------------------------------------------|
|--------------------------------------------------------|

|-----16----16----16----16----16----16-------------------|
|--17----17----17----17----16----16----16-17-17-16-17----|
|--------------------------------------------------------|
|--------------------------------------------------------|
|--------------------------------------------------------|
|--------------------------------------------------------|

Verse
|------------------|----------------------|--------------------|------------------|
|----9-9-----------|------9-9-------------|--------------------|----9-7-----9-7---|
|--9-----9-9-8-8---|--8-9-----9-9-8-8-6-8-|--8-9-9-9-8-8-6-6-8-|--8-----9-8-----9-|
|----------------6-|----------------------|--------------------|------------------|
|------------------|----------------------|--------------------|------------------|
|------------------|----------------------|--------------------|------------------|

Chorus
|--16-16----|--16-16----17-|--16-16----|
|--------14-|--------14----|--------14-|
|-----------|--------------|-----------|
|-----------|--------------|-----------|
|-----------|--------------|-----------|
|-----------|--------------|-----------|

Solo

|--19--17p16p14h16--16-14--14----------------14-16-17-|
|-----------------------------17-16-14-16-17----------|
|-----------------------------------------------------|
|-----------------------------------------------------|
|-----------------------------------------------------|
|-----------------------------------------------------|


|--19--17p16p14h16--16-14--14----14-16-17-19-21-23--|
|-----------------------------17--------------------|
|---------------------------------------------------|
|---------------------------------------------------|
|---------------------------------------------------|
|---------------------------------------------------|

|--24-23----|--24-23-------|
|-----------|--------------|
|-----------|--------------|
|-----------|--------------|
|-----------|--------------|
|-----------|--------------|

Outro riff is same as intro riff. (final cadence is F# -> G# on the high E string (14->16)

Chords:

|E   |C#m |G#  |A       
|-------------------|
|-------------------|
|----1---9----5---6-|
|-------------------|
|----2---11---6---7-|
|--0---9----4---5---|

After chorus it will go A -> Am

For second verse pick notes individually for chords
( root -> 5th -> 3rd -> 5th or Low E string -> A string -> G String -> A String )

After solo go back to main chords as tabbed above
Добавлено: 02.05.2016
Другие материалы по этой песне:

Страница создана 21.06.2012
http://primanota.ru/maxence-cyrin/where-is-my-mind-chords.htm
Привет, Гость.
Предлагаем пройти революционный курс по гитаре.
Подарок от PrimaNota.Ru, забирай!