PrimaNota.ru - самый крупный в мире бесплатный архив песенных текстов, аккордов, табулатур и нот


Max Schneider - Mug Shot - аккорды и текст, видео

Регистрация Запомнить меня
Войти через:  Facebook Google Twitter Vk Yandex Mail.ru

Max Schneider - Mug Shot - аккорды и текст, видео

Печатать
Просмотров: 87
Mug Shot
Max Schneider
Say Max oh
Max oh
Max oh
Max
                              Bm
So put your hands in the air
                F#
Cause this is a stick up
             Em
It's time to get up
             D
I'm takin' over tonight
                              Bm
So put your hands in the air
                F#
Cause this is a shake down
              Em
I'll take you downtown
               D
Sing it like a chain gang

   Bm
Ah ooh ow
   F#
Ah ooh ow
   Em
Ah ooh ow
   D
Ah ooh
                             Bm
So put your hands in the air

            F#
I'll be the bad cop
             Em
Dance til we all drop
Now pose for your mug shot

Bm
Hey hey woo
Em  Bm
Hey hey
And sing it like a chain gang
Bm
Hey hey
Em  Bm
Hey hey

e|-16-16-16-16-16-16-16-16-16-|
B|-15-15-15-15-15-15-15-15-15-|
G|-14-14-14-14-14-14-14-14-14-|
D|----------------------------|
A|----------------------------|
E|----------------------------|

                                Bm
So get your feet off the ground
             F#
This is your big night
          Em
Buckle up real tight
                   D
I'm gonna take you for a ride
                                Bm
So get your feet off the ground
                 F#
You're such a celebrity
            Em
This is our destiny
             D
Child say my name

    Bm
Say Max oh
F#
Max oh
Em
Max oh
D
Max

                                Bm
So get your feet off the ground
             F#
It's gettin' red hot
                 Em
Take it over the top
    D
Now pose for your mug shot

Bm
Hey hey woo
Em  Bm
Hey hey
And sing it like a chain gang
Bm
Hey hey
Em  Bm
Hey hey

e|-------------------------------------------------|
B|-------------5-----------7-----------5-----------|
G|-7-----------------------------------------------|
D|---5-5-5-5-5---5-5-5-5-5---5-5-5-5-5---5-5-5-5-5-|
A|-------------------------------------------------|
E|-------------------------------------------------|
Slow it down for a second
e|-------------------------------------------------|
B|-------------5-----------7-----------5-----------|
G|-7-----------------------------------------------|
D|---5-5-5-5-5---5-5-5-5-5---5-5-5-5-5---5-5-5-5-5-|
A|-------------------------------------------------|
E|-------------------------------------------------|
The lights, the sounds
It's all in slow motion
Put the lime in the potion
And drink it all down
e|-------------------------------------------------|
B|-------------5-----------7-----------5-----------|
G|-7-----------------------------------------------|
D|---5-5-5-5-5---5-5-5-5-5---5-5-5-5-5---5-5-5-5-5-|
A|-------------------------------------------------|
E|-------------------------------------------------|
The lights, the sounds
It's all in slow motion
Put the lime in the potion
And drink it all down
e|-------------------------------------------------|
B|-------------5-----------7-----------5-----------|
G|-7-----------------------------------------------|
D|---5-5-5-5-5---5-5-5-5-5---5-5-5-5-5---5-5-5-5-5-|
A|-------------------------------------------------|
E|-------------------------------------------------|
The lights, the sounds
It's all in slow motion
Put the lime in the potion
And sing it like a chain gang

Hey woo hey
Hey hey
And sing it like a chain gang
Bm
Hey hey woo
Em  Bm
Hey hey
Mug shot shot shot shot
Bm
Hey hey
Shot shot shot
Em  Bm
Hey hey
Mug shot
Bm F#  Em       D
Hey no no no no no
Bm  F#
Hey hey
    Em
The lights the sounds
    D
Now pose for your mug shot
Добавлено: 28.12.2015
Другие материалы по этой песне:
  • Аккорды и текст

Страница создана 28.12.2015
http://primanota.ru/max-schneider/mug-shot-chords.htm
Привет, Гость.
Предлагаем пройти революционный курс по гитаре.
Подарок от PrimaNota.Ru, забирай!