PrimaNota.ru - самый крупный в мире бесплатный архив песенных текстов, аккордов, табулатур и нот


Max Jury - Black Metal - аккорды и текст, видео

Регистрация Запомнить меня
Войти через:  Facebook Google Twitter Vk Yandex Mail.ru

Max Jury - Black Metal - аккорды и текст, видео

Печатать
Просмотров: 186
Black Metal
Max Jury
Max Jury - 'Black Metal'


e-------------------------------------------|
B-------------------------------------------|
G-------------------------------------------|
D-------------------------------------------|
A-------------------------------------------|
E---------2--2--4--5----5--4--2--0----------|

Play this first phrase at the end of every line (when the chord progression goes back to E) or whenever it
suits you. Simple progression through the whole song - play slow and listen to get a feel
for it.  


     E         B          F#m          A


e----0---------2----------2------------0------|
B----0---------4----------2------------2------|
G----1---------4----------2------------2------|
D----2---------4----------4------------2------|
A----2---------2----------4------------0------|
E----0---------x----------2------------x------|


E           B           F#m 
She can get down at the bar

E         B         F#m
She don't live very far

E         B                  F#m
She don't listen to rock 'n' roll

E         B                 F#m
She don't listen to jazz or soul

    A                E
No, no she listens to


      B             F#m
Black metal all day long -

e------------------------------------------|
B------------------------------------------|
G------------------------------------------|
D------------------------------------------|
A------------------------------------------|
E---------2--2--4--5----5--4--2--0---------|


One day I'll tab the solo. Remember that it speeds up at the end too. Enjoy!


"He calls his sound "a big stew", which also encompasses his love of rock'n'roll and British invasion bands like 
the Kinks as well vintage soul, modern pop and contemporary roots music. As a live proposition, Max either plays 
solo or with a full band made up of friends and ex-lovers, who made their debut at a sold-out, 2000 capacity 
venue supporting Lana Del Rey"
Добавлено: 28.03.2015
Вам также может быть интересно:
Другие материалы по этой песне:
  • Аккорды и текст

Страница создана 28.03.2015
http://primanota.ru/max-jury/black-metal-chords.htm
Привет, Гость.
Предлагаем пройти революционный курс по гитаре.
Подарок от PrimaNota.Ru, забирай!