PrimaNota.ru - самый крупный в мире бесплатный архив песенных текстов, аккордов, табулатур и нот


Max Brodie - Be Good - таба, видео

Регистрация Запомнить меня
Войти через:  Facebook Google Twitter Vk Yandex Mail.ru

Max Brodie - Be Good - таба, видео

Печатать
Просмотров: 84
Tabbed by Steve Sco :-)



                    IMPORTANT!! 


***     CAPO 1st Fret or tune guitar up half a tone     ***



I am not sure the exact name for this chord but I have called it C9/B (C major 9th / B) and it is used in the
chorus. It is your standard run down often used between C and A minor. You may prefer to play it with 2nd fret
on D string pressed down as well but I thought it sounded more like it was left open.

E|----0-------|
B|----1-------|
G|----0-------|
D|----0-------|
A|----2-------|
E|----x-------|



INTRO:

      C           C9/B         Am          G           F  

E|--------------------------------------------------------------------------------------------------|
B|--------------------------------------------------------------------------------------------------|
G|--------------------------------------------------------------------------------------------------|
D|-----2-----2-----2-----2-----2-----2-----2-----2--------------------------------------------------|
A|--3-----3-----2-----2-----0-----0--------------------3-----3-----3-----3-----3-----3-----3-----3--|
E|--------------------------------------3-----3-----1-----1-----1-----1-----1-----1-----1-----1-----|

   Am           G           F                     C

E|--------------------------------------------------------------------------|
B|--------------------------------------------------------------------------|
G|--------------------------------------------------------------------------|
D|-----------------------------------------------------2-----2-----2-----2--|
A|-----7-----7-----5-----5-----3-----3-----3-----3--3-----3-----3-----3-----|
E|--5-----5-----3-----3-----1-----1-----1-----1-----------------------------|


FIRST VERSE:

     C           C9/B         Am          G           F  

E|--------------------------------------------------------------------------------------------------|
B|--------------------------------------------------------------------------------------------------|
G|--------------------------------------------------------------------------------------------------|
D|-----2-----2-----2-----2-----2-----2-----2-----2--------------------------------------------------|
A|--3-----3-----2-----2-----0-----0--------------------3-----3-----3-----3-----3-----3-----3-----3--|
E|--------------------------------------3-----3-----1-----1-----1-----1-----1-----1-----1-----1-----|


   Am           G           F                     C

E|--------------------------------------------------------------------------|
B|-----------------------------------------------------1-----1-----1-----1--|
G|--------------------------------------------------------------------------|
D|--------------------------------------------------------------------------|
A|-----7-----7-----5-----5-----3-----3-----3-----3--3-----3-----3-----3-----|
E|--5-----5-----3-----3-----1-----1-----1-----1-----------------------------|


CHORUS:

C     C9/B  F
Turn it all around
           C     C9/B   F
Flip that frown upside down,
       C C9/B     F
Let it be like a "??"
        C   C9/B     F
Oh be good and be "??"




SECOND VERSE:


      C              

E|-----0-----0-----0-----0-----0-----0-----0-----0------|
B|-----1-----1-----1-----1-----1-----1-----1-----1------|
G|------------------------------------------------------|
D|------------------------------------------------------|
A|--3-----3-----3-----3-----3-----3-----3-----3---------|
E|------------------------------------------------------|




      C           C9/B         Am          G           F       

E|-----0-----0-----0-----0-----0-----0---------------------------------------------------------------|
B|-----1-----1-----1-----1-----1-----1-----0-----0------1----1----1----1-----1----1----1----1----1---|
G|-----------------------------------------0-----0------2----2----2----2-----2----2----2----2----2---|
D|---------------------------------------------------------------------------------------------------|
A|--3-----3-----2-----2-----0-----0-------------------3----3----3----3----3----3----3----3----3------|
E|--------------------------------------3-----3------------------------------------------------------|


     Am           G           F                     C

E|------------------------------------------------------------|
B|----1----1----------------1----1----1----1------------------|
G|----2----2-----0----0-----2----2----2----2------------------|
D|---------------0----0---------------------------------------|
A|--0----0----------------3----3----3----3--------------------|
E|-------------3----3-----------------------------------------|


CHORUS 2:

C     C9/B  F
Turn it all around
           C      C9/B   F
Flip that frown upside down,
       C C9/B     F
Let it be like a "??"
        C   C9/B     F                 C   C9/B     F        
Oh be good and be "??"

 
       C   C9/B     F                 C   C9/B     F            C
Oh be good and be "??"




MIDDLE SECTION:
   

     C

E|-----------------------------------------------------|
B|-----------------------------------------------------|
G|-----------------------------------------------------|
D|-----2-----2-----2-----2-----2-----2-----2-----2-----|
A|--3-----3-----3-----3-----3-----3-----3-----3--------|
E|-----------------------------------------------------|


      C           C9/B         Am          G           F  

E|--------------------------------------------------------------------------------------------------|
B|--------------------------------------------------------------------------------------------------|
G|--------------------------------------------------------------------------------------------------|
D|-----2-----2-----2-----2-----2-----2-----2-----2--------------------------------------------------|
A|--3-----3-----2-----2-----0-----0--------------------3-----3-----3-----3-----3-----3-----3-----3--|
E|--------------------------------------3-----3-----1-----1-----1-----1-----1-----1-----1-----1-----|

   Am           G           F                     C

E|------------------------------------------------------------------------------------------|
B|------------------------------------------------------------------------------------------|
G|------------------------------------------------------------------------------------------|
D|-----------------------------------------------------2-----2-----2-----2----2----2----2---|
A|-----7-----7-----5-----5-----3-----3-----3-----3--3-----3-----3-----3-----3----3----3-----|
E|--5-----5-----3-----3-----1-----1-----1-----1---------------------------------------------|



      C           C9/B         Am          G           F  

E|--------------------------------------------------------------------------------------------------|
B|--------------------------------------------------------------------------------------------------|
G|--------------------------------------------------------------------------------------------------|
D|-----2-----2-----2-----2-----2-----2-----2-----2--------------------------------------------------|
A|--3-----3-----2-----2-----0-----0--------------------3-----3-----3-----3-----3-----3-----3-----3--|
E|--------------------------------------3-----3-----1-----1-----1-----1-----1-----1-----1-----1-----|

   Am           G           F                     C

E|--------------------------------------------------------------------------------------------|
B|--------------------------------------------------------1-----1-----1-----1----1----1----1--|
G|--------------------------------------------------------------------------------------------|
D|-----------------------------------------------------2-----2-----2-----2----2----2----2-----|
A|-----7-----7-----5-----5-----3-----3-----3-----3--------------------------------------------|
E|--5-----5-----3-----3-----1-----1-----1-----1-----------------------------------------------|



CHORUS 3:

C     C9/B  F
Turn it all around
           C     C9/B   F
Flip that frown upside down,
       C C9/B     F
Let it be like a "??"
        C   C9/B     F                 C   C9/B     F        
Oh be good and be "??"

 
       C   C9/B     F                 C   
Oh be good and be "??"



Constructive feedback welcome!
Добавлено: 12.06.2016
Другие материалы по этой песне:
  • Аккорды и текст

Страница создана 12.06.2016
http://primanota.ru/max-brodie/be-good-chords.htm
Привет, Гость.
Предлагаем пройти революционный курс по гитаре.
Подарок от PrimaNota.Ru, забирай!