PrimaNota.ru - самый крупный в мире бесплатный архив песенных текстов, аккордов, табулатур и нот


Max Bemis - Ms Martin - таба, видео

Регистрация Запомнить меня
Войти через:  Facebook Google Twitter Vk Yandex Mail.ru

Max Bemis - Ms Martin - таба, видео

Печатать
Просмотров: 51
-------------------------------------------------------------------------------
                             MS Martin - Max Bemis
-------------------------------------------------------------------------------
Tabbed by: raffael
E-mail:

Tuning: standard
  Verse 1:
e|---------------------------------------------------------------------------|
B|---------------------------------------------------------------------------|
G|---9-9-9-9-9-9-9-9-------------9-9-9-9-9-9-9-9-----------------------------|
D|---7-7-7-9-9-----7-(strum)-----7-7-7-9-9-----7--(strum)--------------------| x2
A|---9-9-9-7-7-7-7-5-------------9-9-9-7-7-7-7-5-----------------------------|
E|-------------9-9-------------------------9-9-------------------------------|
 the way that you move      the things that you do

  Chorus:
e|---------------------------------------------------------------------------|
B|---------------------------------------------------------------------------|
G|------------------------9-------------9-------------9------9------9--------|
D|-strum the following------------------9-------------7------7------9--------| x2
A|------------------------7-------------7-------------5------9------7--------|
E|------------------------5--------------------------------------------------|
                        i can't... your effect... you get... turn.. on..

  Post-Chorus:
e|---------------------------------------------------------------------------|
B|---------------------------------------------------------------------------|
G|------9--9--9--9--9--9--------9--------------------------------------------|
D|------7--7--7--7--7--7--x3----9--(strum)-----------------------------------|
A|------9--9--9--5--5--5--------7--------------------------------------------|
E|---------------------------------------------------------------------------|
   they say...   lasts...      don't pass

Repeat Verse

Repeat Chorus

Repeat Post-Chorus

Repeat Verse 

Добавлено: 27.07.2015
Другие материалы по этой песне:
  • Аккорды и текст

Страница создана 27.07.2015
http://primanota.ru/max-bemis/ms-martin-chords.htm
Привет, Гость.
Предлагаем пройти революционный курс по гитаре.
Подарок от PrimaNota.Ru, забирай!