PrimaNota.ru - самый крупный в мире бесплатный архив песенных текстов, аккордов, табулатур и нот


Mavises - Naughty Boy - таба, видео

Регистрация Запомнить меня
Войти через:  Facebook Google Twitter Vk Yandex Mail.ru

Mavises - Naughty Boy - таба, видео

Печатать
Просмотров: 68
Naughty boy- mavises

Intro: Dm Dm Dm FF x4
Verse: 
E-------------------------------
B-------------------------------
G-------------------------------- X2
D-----------3--------3----------
A------5-5---5-5-5---5--------
E--------------------------------

E-------------------------------
B-------------------------------
G-------------------------------- 
D--------------3---------------
A--------5-5----5-5-5-6-6---
E--------------------------------
 
E-------------------------------
B-------------------------------
G-------------------------------- x3
D-----------------------------
A----5-5-5-5-5-5-5-6-6-----
E--------------------------------

E-------------------------------
B-------------------------------
G-------------------------------- =20
D-----------------------------
A---5-5-5-5-5-6-6-8-8------
E--------------------------------

Chorus: C D
 Ab
C D
F G Ab G
if u have any changes email me at harrasing_chickens@hotmail.com (rosalin=
d PoerwantoroGet more from the Web.  FREE MSN Explorer download : http://=
explorer.msn.com

     
Добавлено: 16.06.2013
Другие материалы по этой песне:
  • Аккорды и текст

Страница создана 16.06.2013
http://primanota.ru/mavises/naughty-boy-chords.htm
Привет, Гость.
Предлагаем пройти революционный курс по гитаре.
Подарок от PrimaNota.Ru, забирай!