PrimaNota.ru - самый крупный в мире бесплатный архив песенных текстов, аккордов, табулатур и нот


Mavericks - I Should Have Been True - текст песни, таба, видео

Регистрация Запомнить меня
Войти через:  Facebook Google Twitter Vk Yandex Mail.ru

Mavericks - I Should Have Been True - текст песни, таба, видео

Печатать
Просмотров: 55
Авторы музыки: Raul Malo, Stan Lynch

-------------------------------------------------------------------------------
                            I should have been true - Mavericks
-------------------------------------------------------------------------------
Tabbed by: Ilikekfc
E-mail:

Tuning: Standard

Intro:

     C                               Am
e|---------------------------------------------------------------------------|
B|------------------5---3---5---1-----------------5---3---5---1--------------|
G|------------------5---4---5---0-----------------5---4---5---2--------------|
D|------2--5-5--------------------------2--7-7-------------------------------|
A|---3-------------------------------3---------------------------------------|
E|---------------------------------------------------------------------------|

     C                               Am
e|---------------------------------------------------------------------------|
B|------------------5---3---5---1-----------------5---3---5/10---------------|
G|------------------5---4---5---0-----------------5---4---5/9----------------|
D|------2--5-5--------------------------2--7-7-------------------------------|
A|---3-------------------------------3---------------------------------------|
E|---------------------------------------------------------------------------|

Repeat the intro riff for the ending.


Chorus:

e|-------------0------------------1------------------------------------------|
B|-------------1------------------3------------------------------------------|
G|-------------2------------------2------------------------------------------|
D|-------------2------------------0------------------------------------------|
A|---3-2-3-----0---------3-2-3-----------------------------------------------|
E|---------3-------------------5---------------------------------------------|

This is the same for both choruses.


Chords throughout the song:


C Am Dm G



************************************

| /   slide up
| \   slide down
| h   hammer-on
| p   pull-off
| ~   vibrato
| +   harmonic
| x   Mute note
| b   Bend
| pb  Pre-bend
| br  Bend release
| pbr Pre-bend release
| brb Bend release bend

************************************
Добавлено: 30.12.2015
Другие материалы по этой песне:
  • Аккорды и текст

Страница создана 12.06.2012
http://primanota.ru/mavericks/i-should-have-been-true-chords.htm
Привет, Гость.
Предлагаем пройти революционный курс по гитаре.
Подарок от PrimaNota.Ru, забирай!