PrimaNota.ru - самый крупный в мире бесплатный архив песенных текстов, аккордов, табулатур и нот


Maverick Sabre - They Found Him A Gun Live - таба, видео

Регистрация Запомнить меня
Войти через:  Facebook Google Twitter Vk Yandex Mail.ru

Maverick Sabre - They Found Him A Gun Live - таба, видео

Печатать
Просмотров: 42
-------------------------------------------------------------------------------
                             They Found Him a Gun Live - Maverick Sabre
-------------------------------------------------------------------------------
Song: They Found Him a Gun
Artist: Maverick Sabre
Album: Travelling Man
Tabbed by: Josh Crabtree

I'm not a guitar player but I can't find a single tab for this song online so I thought I'd jump in. 
It's very short and simple and just repeats.
Play it and alternate the pattern as much as you like just as he does.
This is mostly just for me to refer back to so be gentle with me.

Capo on 5th
(I recommend keeping your middle finger on D string - 2nd fret the whole time)

e|---------------------------|
B|----0-0---0-0---0-0---0-0--|
G|---------------------------|
D|----2-2---2-2---2-2---2-2--|
A|--0--0--3--3---------------|
E|--------------1--1--3--3---|

Really appreciate the 5 star ratings on my first tab!
Добавлено: 29.05.2016
Другие материалы по этой песне:
  • Аккорды и текст

Страница создана 29.05.2016
http://primanota.ru/maverick-sabre/they-found-him-a-gun-live-chords.htm
Привет, Гость.
Предлагаем пройти революционный курс по гитаре.
Подарок от PrimaNota.Ru, забирай!