PrimaNota.ru - самый крупный в мире бесплатный архив песенных текстов, аккордов, табулатур и нот


Maverick Sabre - Let Me Go - таба, видео

Регистрация Запомнить меня
Войти через:  Facebook Google Twitter Vk Yandex Mail.ru

Maverick Sabre - Let Me Go - таба, видео

Печатать
Просмотров: 217
-------------------------------------------------------------------------------
                             Let Me Go - Maverick Sabre
-------------------------------------------------------------------------------
Tabbed by: Rudric
Email: ruairidhchalmers@gmail.com

Tuning: Standard
Capo on 1

Intro and Chorus:

      Am             C             B7           Bb7
e|---0-0-0---x-x-----------x-x---2-2-2---x-x---1-1-1---x-x-------------------|
B|---1-1-1---x-x---5-5-5---x-x---4-4-4---x-x---3-3-3---x-x-------------------|
G|---2-2-2---x-x---5-5-5---x-x---2-2-2---x-x---1-1-1---x-x-------------------|
D|---2-2-2---x-x---5-5-5---x-x---4-4-4---x-x---3-3-3---x-x-------------------|
A|---0-0-0---x-x---3-3-3---x-x---2-2-2---x-x---1-1-1---x-x-------------------|
E|-----------x-x-----------x-x-----------x-x-----------x-x-------------------|

Verse: 

    A5            C5            B5            Bb5
e|---------------------------------------------------------------------------|
B|---------------------------------------------------------------------------|
G|---------------------------------------------------------------------------|
D|---2------------5-------------4--------------3-----------------------------|
A|---0------------3-------------2--------------1-----------------------------|
E|---------------------------------------------------------------------------|
      {Let ring}
Bridge: 

e|---5-------------------------2---------------1-----------------------------|
B|---6-----------5-------------4---------------3-----------------------------|
G|---7-----------5-------------2---------------1-----------------------------|   x3
D|---7-----------5-------------4---------------3-----------------------------|
A|---5-----------3-------------2---------------1-----------------------------|
E|---------------------------------------------------------------------------|
      {Let ring}


e|---5-----------------------------------------------------------------------|
B|---6-----------5-------------2---------------------------------------------|
G|---7-----------5-------------4---------------------------------------------|
D|---7-----------5-------------2---------------------------------------------|
A|---5-----------3-------------4---------------------------------------------|
E|---------------------------------------------------------------------------|
      {Let ring}
Добавлено: 24.02.2012
Другие материалы по этой песне:
  • Аккорды и текст

Страница создана 24.02.2012
http://primanota.ru/maverick-sabre/let-me-go-chords.htm
Привет, Гость.
Предлагаем пройти революционный курс по гитаре.
Подарок от PrimaNota.Ru, забирай!