PrimaNota.ru - самый крупный в мире бесплатный архив песенных текстов, аккордов, табулатур и нот


Джулиани Мауро - Study 6 - аккорды и текст, таба, видео

Регистрация Запомнить меня
Войти через:  Facebook Google Twitter Vk Yandex Mail.ru

Джулиани Мауро - Study 6 - аккорды и текст, таба, видео

Печатать
Просмотров: 207
Study 6
Джулиани Мауро
		   From mstucka@orion.it.luc.edu Fri Jan 10 12:41:31 1997

One more submission for you kind folk -- classical/g/Giuliani/study6.tab


A study by Mauro Giuliani (1781-1828)
Tabbed by Mike Stucka (mstucka@luc.edu)
Notes: Fun little piece, to be played very much allegro.  Fingers play
the melody, but the thumb plays bass in a very driving style.  Try
playing the bass notes "standalone" first to get an idea of what the piece
is trying to accomplish.  Have fun!  -- Mike


E-|----------0----------------------------------------------------------------|
B-|-----1--------1------------------------------------------------------------|
G-|---2---2----2---2---2---2---2---2------------------------------------------|
D-|---------------------------------------------------------------------------|
A-|-0----------------0---2---3---0--------------------------------------------|
E-|---------------------------------------------------------------------------|


E-|---------1-----------------------------------------------------------------|
B-|-----3-------3-------------------------------------------------------------|
G-|---2---2---2---2---2---2---2---2-------------------------------------------|
D-|-0---------------0---2---3---0---------------------------------------------|
A-|---------------------------------------------------------------------------|
E-|---------------------------------------------------------------------------|


E-|---------0-----------------------------------------------------------------|
B-|-----0-------0-------------------------------------------------------------|
G-|---1---1---1---1---1---1---1---1-------------------------------------------|
D-|-2---------------2---3---2---0---------------------------------------------|
A-|---------------------------------------------------------------------------|
E-|---------------------------------------------------------------------------|


E-|---------0---------------0-------------------------------------------------|
B-|-----1-------1-------3-------3---------------------------------------------|
G-|---2---2---2---2---1---1---1---1-------------------------------------------|
D-|---------------------------------------------------------------------------|
A-|-3---------------2---------------------------------------------------------|
E-|---------------------------------------------------------------------------|


E-|---------0-----------------------------------------------------------------|
B-|-----1-------1-------------------------------------------------------------|
G-|---2---2---2---2-----------------------------------------------------------|
D-|-------------------2---2---2---2-------------------------------------------|
A-|-0---------------0---2---3---0---------------------------------------------|
E-|---------------------------------------------------------------------------|


E-|---------1-----------------------------------------------------------------|
B-|-----3-------3-------------------------------------------------------------|
G-|---2---2---2---2---2---2---2---2-------------------------------------------|
D-|-0---------------0---2---3---0---------------------------------------------|
A-|---------------------------------------------------------------------------|
E-|---------------------------------------------------------------------------|


E-|---------0---------------0-------------------------------------------------|
B-|-----1-------1-------1-------1---------------------------------------------|
G-|---2---2---2---2---2---2---2---2-------------------------------------------|
D-|-2-------------------------------------------------------------------------|
A-|---------------------------------------------------------------------------|
E-|-----------------0---------------------------------------------------------|


E-|---------0---------------0-------------------------------------------------|
B-|-----0-------0-------------------------------------------------------------|
G-|---2---2---2---2-----1-------1---------------------------------------------|
D-|-2-----------------3---2---2---2-------------------------------------------|
A-|---------------------------------------------------------------------------|
E-|-----------------0---------------------------------------------------------|


E-|-------0-------0-------0-------0-------------------------------------------|
B-|-----1-------3-------1-------0---------------------------------------------|
G-|---2-------1-------2-------1-----------------------------------------------|
D-|---------------------------------------------------------------------------|
A-|-0---------------0---------------------------------------------------------|
E-|---------0---------------0-------------------------------------------------|


E-|-------0-------0-------0-------0-------------------------------------------|
B-|-----1-------3-------1-------0---------------------------------------------|
G-|---2-------1-------2-------1-----------------------------------------------|
D-|---------------------------------------------------------------------------|
A-|-0---------------0---------------------------------------------------------|
E-|---------0---------------0-------------------------------------------------|


E-|---------------------------------------------------------------------------|
B-|---------------------------------------------------------------------------|
G-|---------------------------------------------------------------------------|
D-|---------------------------------------------------------------------------|
A-|-0-------------------------------------------------------------------------|
E-|---------------------------------------------------------------------------|




Mauro Giuliani
Study 6

Play this extremely fast.

|---------0------------------------|---------1------------------------|
|-----1-------1--------------------|-----3-------3--------------------|
|---2---2---2---2---2---2---2---2--|---2---2---2---2---2---2---2---2--|
|----------------------------------|-0---------------0---2---3---0----|
|-0---------------0---2---3---0----|----------------------------------|
|----------------------------------|----------------------------------|



|---------0------------------------|---------0---------------0--------|
|-----0-------0--------------------|-----1-------1-------3-------3----|
|---1---1---1---1---1---1---1---1--|---2---2---2---2---1---1---1---1--|
|-2---------------2---3---2---0----|----------------------------------|
|----------------------------------|-3---------------2----------------|
|----------------------------------|----------------------------------|



|---------0------------------------|---------1------------------------|
|-----1-------1--------------------|-----3-------3--------------------|
|---2---2---2---2---2---2---2---2--|---2---2---2---2---2---2---2---2--|
|----------------------------------|-0---------------0---2---3---0----|
|-0---------------0---2---3---0----|----------------------------------|
|----------------------------------|----------------------------------|



|---------0---------------0--------|---------0---------------0--------|
|-----1-------1-------1-------1----|-----0-------0-------0-------0----|
|---2---2---2---2---2---2---2---2--|---2---2---2---2---1---1---1---1--|
|-2--------------------------------|-2--------------------------------|
|----------------------------------|----------------------------------|
|-----------------0----------------|-----------------0----------------|



|-------0-------0--------0-------0-|-------0-------0--------0-------0-|
|-----1-------3--------1-------0---|-----1-------3--------1-------0---|
|---2-------1--------2-------1-----|---2-------1--------2-------1-----|
|----------------------------------|----------------------------------|
|-0---------------0----------------|-0---------------0----------------|
|---------0----------------0-------|---------0----------------0-------|



|----------------------------------|
|----------------------------------|
|--2-------------------------------|
|----------------------------------|
|--0-------------------------------|
|----------------------------------|


I'm not sure if the name of this piece is right, but that's what it was called in
some classical guitar book I have.     
Добавлено: 11.11.2013
Другие материалы по этой песне:
  • Аккорды и текст

Страница создана 22.06.2012
http://primanota.ru/mauro-giuliani/study-6-chords.htm
Привет, Гость.
Предлагаем пройти революционный курс по гитаре.
Подарок от PrimaNota.Ru, забирай!