PrimaNota.ru - самый крупный в мире бесплатный архив песенных текстов, аккордов, табулатур и нот


Морис Равель - Болеро - таба, видео

Регистрация Запомнить меня
Войти через:  Facebook Google Twitter Vk Yandex Mail.ru

Морис Равель - Болеро - таба, видео

Печатать
Просмотров: 610
Maurice Ravel (1875-1937)

       Bolero

00:00

E--8~~~7-8-10-8-7----8-8----8~~~-7-8-------------------------------------|
B-----------------10-----10----------10-8------8~~~-------------8-10-8~~-|
G-----------------------------------------9-10------10-9-7-9-10----------|
D------------------------------------------------------------------------|
A------------------------------------------------------------------------|
E------------------------------------------------------------------------|

----7-----------------------------------------|
-10---10-8------------------------------8~~~--|
-----------10-9-7-9-7---------7-9-10-7~-------|
----------------------10~~-10-----------------|
----------------------------------------------|
----------------------------------------------|


00:31
01:17
03:39
04:25
06:49
07:35
09:53
10:42
13:42

E--10~~~8-7----7-8-10-8-7~-8-7----8-7----------------------8----7-------|
B-----------10-----------------10-----10----------------10---10---8-----|
G----------------------------------------10~~-10-10-10--------------10~-|
D-----------------------------------------------------------------------|
A-----------------------------------------------------------------------|
E-----------------------------------------------------------------------|

-------------7----------------------------------------------------------|
----------10---8-10---------------------------10----8-------------------|
-10-10-10-----------10-7-7----7~~~---7-7-7-10----10---9-7-7----7~~~-7-5-|
---------------------------10-------------------------------10----------|
------------------------------------------------------------------------|
------------------------------------------------------------------------|

------------------------|
--------8~~~------------|
-7-9-10------10-9-7-----|
--------------------10--|
------------------------|
------------------------|


01:44
04:52
08:01
11:07
11:53
12:37

E--6~~~-5-----6-8-5---6-5---6~~~-5-6-5--------------6-8-9-9-9-9-9-9-9-9-|
B---------8-6-------8-----8------------8-6-5---5~~~---------------------|
G--------------------------------------------7--------------------------|
D-----------------------------------------------------------------------|
A-----------------------------------------------------------------------|
E-----------------------------------------------------------------------|

-9-8-6-9-8-6-9-8-6------------------------------------------------------|
-------------------9-8-6---------------6-8-9-6-8------------------------|
-------------------------9~~~-7~-9-7-9-----------9-7-9-7-5~~-3~-5-3-5-3-|
------------------------------------------------------------------------|
------------------------------------------------------------------------|
------------------------------------------------------------------------|

---------------------------------------------------------------|
-5-3---3-------------------------------------------------------|
-----5---5-3---3-----------------------------------------------|
-------------6---6-5~~-3~~~-5-3-----3---3-----------3----------|
--------------------------------6~~---6---4~~-4-6-4---6-4-3~~~-|
---------------------------------------------------------------|


02:31
05:40
08:47

E--18~~~-17-------18-20-17----18-17----18-17-18-17----------------------|
B-----------20-18----------20-------20-------------20~~~-18-17----17~~~-|
G--------------------------------------------------------------19-------|
D-----------------------------------------------------------------------|
A-----------------------------------------------------------------------|
E-----------------------------------------------------------------------|

18-20-21-21-21-21-21-21-21-21-21-20-18-21-20-18-21-20-18----------------|
---------------------------------------------------------21-20-18-------|
------------------------------------------------------------------21~~~-|
------------------------------------------------------------------------|
------------------------------------------------------------------------|
------------------------------------------------------------------------|

------------------------------------------------------------------------|
---------------18~-20-21-18-20------------------------------15-17-15----|
-19~~-21-19-21-----------------21-19-21-19-17-15~~-17-15-17----------17-|
------------------------------------------------------------------------|
------------------------------------------------------------------------|
------------------------------------------------------------------------|

------------------------------------------------------------------------|
-15---------------------------------------------------------------------|
----17-15----15---------------------------------------------------------|
----------18----18-17~-15-17-15-------15----15----------------15--------|
--------------------------------18~~~----18----16~~~-16-18-16----18-16--|
------------------------------------------------------------------------|

----|
----|
----|
----|
-15~|
----|


14:07
<<<----------------------------------------------------------------------|>>
E--6~~~-5-----6-8-5---6-5---6~~~-5-6-5--------------6-8-9-9-9-9-9-9-9-9--|
B---------8-6-------8-----8------------8-6-5---5~~~----------------------|
G--------------------------------------------7---------------------------|
D------------------------------------------------------------------------|
A------------------------------------------------------------------------|
E------------------------------------------------------------------------|

9-8-6-9-8-6-9-8-6-------------------------------------------------------| =
------------------9-8-6----------------6-8-9-6-8----------------------3-|
------------------------9~~~-7~-9-7-9------------9-7-9-7-5~~-3~-5-3-5---|
------------------------------------------------------------------------|
------------------------------------------------------------------------|
------------------------------------------------------------------------|

----------------------------------------7~~--------------7-8-7~~-8-10-8-|
5-3---3-------------------------------8-----10-8----8-10----------------|
----5---5-3---3--------7~~-9~~-7-9-10------------10---------------------|
-------------6---6-5~~--------------------------------------------------|
------------------------------------------------------------------------|
------------------------------------------------------------------------|

-7--------------7~~-8-10-8-7--------------------------------------------|
---10-8----8-10--------------10-8----8-------------------7-9-7----------|
--------10------------------------10---10-9~~-7----7-9~~-------9~~-7----|
------------------------------------------------10-------------------10-|
------------------------------------------------------------------------|
------------------------------------------------------------------------|

-----------------------------------------------------------------------|
------7-9-7-----------------7\9------7\9------7\9-------7\9-------7\9--|
7-9~~-------9~~-7----7----------9\11-----9\11-----9\11------9\11-------|
------------------10---10----------------------------------------------|
-----------------------------------------------------------------------|
-----------------------------------------------------------------------|
Добавлено: 06.04.2012
Другие материалы по этой песне:

Страница создана 04.03.2012
http://primanota.ru/maurice-ravel/bolero-chords.htm
Привет, Гость.
Предлагаем пройти революционный курс по гитаре.
Подарок от PrimaNota.Ru, забирай!