PrimaNota.ru - самый крупный в мире бесплатный архив песенных текстов, аккордов, табулатур и нот


Maui Waui - Im Through - таба, видео

Регистрация Запомнить меня
Войти через:  Facebook Google Twitter Vk Yandex Mail.ru

Maui Waui - Im Through - таба, видео

Печатать
Просмотров: 36
Уроки эстрадного вокала в Санкт-Петербурге
Im Through - Maui Waui


Vers 1

It's the dubious acts
It's the motivating anger
Confusing things that won't seem so clear
It's the long written letters
Crawling out the flames
The thought of the words that goes to waste
What I keep inside
Just won't go away
It won't save my hide
You just keep it a stray
Tell me what to do and I'll make it so
Just do hurry up and don't let me go

E|--------------------------------------------------|
B|--------------------------------------------------|
G|--4--5--------7--5-----4--5---------6-7--6-7------|
D|--------5--7--------7--------5--7---5-6--5-6------|
A|------------------------------------6-7--6-7------|
E|--------------------------------------------------|

E|--------------------------------------------------|
B|--------------------------------------------------|
G|--4--5--------7--5-----4--5---------6-7--6-7------|
D|--------5--7--------7--------5--7---5-6--5-6------|
A|------------------------------------6-7--6-7------|
E|--------------------------------------------------|

E|--------------------------------------------------|
B|--------------------------------------------------|
G|--4--5---------7--5----4--------------------------|
D|--------5--7--------7------5-5-55-5-7-------------|
A|--------------------------------------------------|
E|--------------------------------------------------|

E|--------------------------------------------------|
B|--------------------------------------------------|
G|--4--5---------7--5----4--------------------------|
D|--------5--7--------7------5-5-55-5-7-------------|
A|--------------------------------------------------|
E|--------------------------------------------------|

But now I am through
And it won't bother me no more
And I am happy that you're feeling so to


(NÄR JOEL SJUNGER RADEN OVAN SÅ SKA DU SPELA G OCH A! (Baré Ackord) )

Försöker skriva på taben nedan så du förstår.

E|-----------------------------------------A----G-------|
B|-----------------------------------------A----G-------|
G|--4--5---------7--5----4-----------------A----G-------|
D|--------5--7--------7------5-5-55-5-7----A----G-------|
A|-----------------------------------------A----G-------|
E|-----------------------------------------A----G-------|


Punch the wall down and make it all new
Sweep the old away
Don't chew the bone just do
Don't pay a stranger for a false ear
Bringing in the things that makes the heart tear
The same situations have tempted me before
Brain simulations I played through my wall
But the shit that comes it just never leaves
Might turn and grow but it's just the same as before

NÄR JOEL SJUNGER TEXTEN OVAN SÅ ÄR DET DETTA SOM SKA SPELAS!


E|---16--17--16--17-17-17---16--17--19-19-19-------------|
B|---16--17--16--17-17-17---16--17--19-19-19-------------|
G|---16--17--16--17-17-17---16--17--19-19-19-------------|
D|-------------------------------------------------------|
A|-------------------------------------------------------|
E|-------------------------------------------------------|


But now I am through
And it won't bother me no more
And I am happy that you're feeling so to
It was hell of pain
You were a saint

PRECHORUS:

E|-G--A--G--A----D---Em-----------------------------------|
B|-G--A--G--A----D---Em-----------------------------------|
G|-G--A--G--A----D---Em-----------------------------------|
D|-G--A--G--A----D---Em-----------------------------------|
A|-G--A--G--A----D---Em-----------------------------------|
E|-G--A--G--A----D---Em-----------------------------------|

REFRÄNG

SPELA DETTA 2 GÅNGER ENSAM. SEN KOMMER JOEL IN PÅ SÅNG

The things that you tell yourself
The crock of shit you say
Bring the salt right in
Cut me up and pour away
What sort of feelings are you looking for?
Is it love?
Or just someone to bring home and fuck on the floor?

E|----Em---D--A---------------------|
B|----Em---D--A---------------------|
G|----Em---D--A---------------------|
D|----Em---D--A---------------------|
A|----Em---D--A---------------------|
E|----Em---D--A---------------------|

You wanted the good and you wanted the bad
We just tried it out and it was fucking rad
Misguided thoughts all about care
My mind was all clear but you were never really there
Never been so wrong I was never right
Though didn't hear you say it during the night
It's a wake up call and you can say I grew
So all in all I am finally through

E|--------------------------------------------------|
B|--------------------------------------------------|
G|--4--5--------7--5-----4--5---------6-7--6-7------|
D|--------5--7--------7--------5--7---5-6--5-6------|
A|------------------------------------6-7--6-7------|
E|--------------------------------------------------|

E|--------------------------------------------------|
B|--------------------------------------------------|
G|--4--5--------7--5-----4--5---------SLIDE\7--9--5-|
D|--------5--7--------7--------5--7-----------------|
A|--------------------------------------------------|
E|--------------------------------------------------|

E|--------------------------------------------------|
B|--------------------------------------------------|
G|--4--5--------7--5-----4--5-----------------------|
D|--------5--7--------7--------5--7----------5--7---|
A|-------------------------------------5-6-7--------|
E|--------------------------------------------------|

E|--------------------------------------------------|
B|--------------------------------------------------|
G|--4--5--------7--5-----4--5---------SLIDE\7--9--5-|
D|--------5--7--------7--------5--7-----------------|
A|--------------------------------------------------|
E|--------------------------------------------------|

Sad times and misery won't make your spirit fly
But don't now why I tried
So come on lets go

SOLO

(GÖR ETT EGET SOLO PALLAR INTE SKRIVA NER MITT HÄR HAHA)

GÖR NÅGOT I A-PENTATONISK SKALA.

All the time that we spent
There was a time and room for more
Not only talk but the sweet lovin' too
It was hell of pain
You were a saint


PRECHORUS:

E|-G--A--G--A----D---Em-----------------------------------|
B|-G--A--G--A----D---Em-----------------------------------|
G|-G--A--G--A----D---Em-----------------------------------|
D|-G--A--G--A----D---Em-----------------------------------|
A|-G--A--G--A----D---Em-----------------------------------|
E|-G--A--G--A----D---Em-----------------------------------|

The things that you tell yourself
The crock of shit you say
Bring the salt right in
Cut it up and pour away
What sort of feelings are you looking for?
Is it love?
Or just someone to bring home and fuck on the floor?

The things that you tell yourself
The crock of shit you say
Bring the salt right in
Cut it up and pour away
What sort of feelings are you looking for?
Is it love?
Or just someone to bring home and fuck on the floor?


E|----Em---D--A---------------------|
B|----Em---D--A---------------------|
G|----Em---D--A---------------------|
D|----Em---D--A---------------------|
A|----Em---D--A---------------------|
E|----Em---D--A---------------------|

E|----Em---D--A---------------------|
B|----Em---D--A---------------------|
G|----Em---D--A---------------------|
D|----Em---D--A---------------------|
A|----Em---D--A---------------------|
E|----Em---D--A---------------------|

SISTA DELEN PÅ SISTA REFRÄNGEN SPELAS MED DESSA ACKORD.


E|-----EM---G--Fm7---A----------------------|
B|-----EM---G--Fm7---A----------------------|
G|-----EM---G--Fm7---A----------------------|
D|-----EM---G--Fm7---A----------------------|
A|-----EM---G--Fm7---A----------------------|
E|-----EM---G--Fm7---A----------------------|

Tear it up
I wanna give you the sweet love


Pontus Persson 07/13-15
Добавлено: 25.12.2015
Другие материалы по этой песне:
  • Аккорды и текст

Страница создана 25.12.2015
http://primanota.ru/maui-waui/im-through-chords.htm
Привет, Гость.
Предлагаем пройти революционный курс по гитаре.
Подарок от PrimaNota.Ru, забирай!