PrimaNota.ru - самый крупный в мире бесплатный архив песенных текстов, аккордов, табулатур и нот


Mattson Adam Lee - South Shore - таба, видео

Регистрация Запомнить меня
Войти через:  Facebook Google Twitter Vk Yandex Mail.ru

Mattson Adam Lee - South Shore - таба, видео

Печатать
Просмотров: 73
Уроки эстрадного вокала в Санкт-Петербурге
-------------------------------------------------------------------------------
			     South Shore - Adam Lee Mattson
-------------------------------------------------------------------------------
Tabbed by:L Tuska
Email:l97e52e20@yahoo.com

Tuning:Drop-D

played with fast finger picking.

e|---------------------------------------------------------------------------|
B|---------------------------------------------------------------------------|
G|----------0-------(5)------------0-------(5)-----------0-------(5)---------|
D|----0--3^v------5----5-5 ---0-3^v------5----5-5---0-3^v------5----5-5------|
A|-0h5-0-----3/5-3------3--0h5-0----3/5-3------3-0h5-0----3/5-3------3-------|
E|--------------0--0-------------------0--0------------------0--0------------|



e|---------------------------------------------------------------------------|
B|---------------------------------------------------------------------------|
G|------------------(5)-------(5)---------------(12)--(7)------(12)--(7)-----|
D|----0-----03/5--5----5-5--5-----0--5--4--3--0------------(7)---------------|
A|-0h5-0-3^v-----3------3--3-----0--0--0--0--0-------0----0---------0--------|
E|--------------0--0------0--0-----5--4--3--0--0----0----0----0----0---------|



e|---------------------------------------------------------------------------|
B|---------------------------------------------------------------------------|
G|-----(12)--(7)------(12)---------------------------------------------------|
D|---0------------(7)-------(7)--0---5--4--3----------5h7----------5h7-------|
A|--0-------0----0---------0----0---0--0--0------4h5h7--------4h5h7----------|
E|-0--0----0----0----0----0----0--05--4--3--0h5h7--------0h5h7---------------|



e|---------------------------------------------------------------------------|
B|---------------------------------------------------------------------------|
G|-----5-------5-------5-------5h7p5--------------5h7p5-----5----------------|
D|---7--7-7--7--7-7--7--7-7--7-0-0---0h7--7--7--7-0-0--oh7-----7--7----------|
A|--0----0--0----0--0----0--0-0---------0--0--0--0---------0--0--0-----------|
E|-0--0----0--0----0--0----0-----------0--0--0--0---------0--0--0------------|



e|---------------------------------------------------------------------------|
B|---------------------------------------------------------------------------|
G|--5h7p55~~/7~~--7~~--7~~/9~~--9~~--9~~/12~~--12~~--12~~\11~~--11~~--11~~---|
D|--0-0-00---0----0----0---0----0----0---0-----0-----0----0-----0-----0------|
A|---------------0----0--------0----0---------0-----0----------0-----0-------|
E|-0------------0----0--------0----0---------0-----0----------0-----0--------|



e|---------------------------------------------------5-5-xxx-3-xxxx---5------|
B|---------------------------------------------------5-5-xxx-3-xxxx---3------|
G|-11~9~7~5~/7~--7~~--7~~/11~9~7~5~/7~--7~--7~-------7-7-xxx-5-xxxx---2------|
D|-0--0-0-0--0---0----0---0--0-0-0--0---0---0--------7-7-xxx-5-xxxx-000------|
A|---0-0-0------0----0---0--0-0-0-0----0---0--0----0-5-5-xxx-3-xxxx-000------|
E|---0-0-0-----0----0----0--0-0-0-0---0---0---0x11\0-5-5-xxx-3-xxxx-000------|






| /  slide up
| \  slide down
| h  hammer-on
| p  pull-off
| ~  vibrato
| +  harmonic
| x  Mute note
===============================================================================


     
Добавлено: 13.09.2013
Другие материалы по этой песне:
  • Аккорды и текст

Страница создана 13.09.2013
http://primanota.ru/mattson-adam-lee/south-shore-chords.htm
Привет, Гость.
Предлагаем пройти революционный курс по гитаре.
Подарок от PrimaNota.Ru, забирай!