PrimaNota.ru - самый крупный в мире бесплатный архив песенных текстов, аккордов, табулатур и нот


Mattrach - Dark Paradise - таба, видео

Регистрация Запомнить меня
Войти через:  Facebook Google Twitter Vk Yandex Mail.ru

Mattrach - Dark Paradise - таба, видео

Печатать
Просмотров: 149
Dark Paradise Mattrach

Drop d

Intro (not right)

------------------------------------|
------------------------------------|
------------------------------------|
----0-1---3---1-0-----0-1---3---1---|
--3-----3---3-------3-----3---3---3-|
------------------------------------|

------------------------------------|
------------------------------------|
------------------------------------|
----0-1---3---1-------0-1---3---1---|
------------------------------------|
--1-----1---1---1---1-----1---1---1-|

------------------------------------|
------------------------------------|
------------------------------------|
----0-1---3---1-------0-1---3---1---|
------------------------------------|
--3-----3---3---3---3-----3---3---3-|repeat


Lead
------------------------------------|
----13-15-16-18-20~--18h20p18-16----|
-12----------------------------.----|
------------------------------------|
------------------------------------|
------------------------------------|

--18--------------------------------|
-----20-16-15-----------------------|
--------------15~---13/12-----------|
------------------------------------|
------------------------------------|
------------------------------------|

------------------------------------------|
-8---11/13\11/13—8~----8---13/15\13/15-8~-|
------------------------------------------|
------------------------------------------|
------------------------------------------|
------------------------------------------|

------------------------------------|
----13-15-16-18-20~--18h20p18-16----|
-12----------------------------.----|
------------------------------------|
------------------------------------|
------------------------------------|

--18--------------------------------|
-----20-16-15-----------------------|
--------------15~---13/12-----------|
------------------------------------|
------------------------------------|
------------------------------------|

----------------------------------------------------|
-8---11/13\11/13—8~----8---13/15\13/15-16~--18-20~--|
----------------------------------------------------|
----------------------------------------------------|
----------------------------------------------------|
----------------------------------------------------|


-------------------------------------------|
-15b~—15b~--13~---------11-13---8—9h8------|
---------------------12---------------10~--|
-------------------------------------------|
-------------------------------------------|
-------------------------------------------|

--18b-------15b------------------------------|
-------16---------13--------------15-16------|
-----------------------12---12h13------------|
---------------------------------------------|
---------------------------------------------|
---------------------------------------------|

-------------------------------------------|
-15b~—15b~--13~---------11-13---8—9h8------|
---------------------12---------------10~--|
-------------------------------------------|
-------------------------------------------|
-------------------------------------------|


--20b----------15b--------18----18----18--------|
-------18b-----------16------15----16-----13~---|
------------------------------------------------|
------------------------------------------------|
------------------------------------------------|
------------------------------------------------|
Then repeat etc
Добавлено: 12.04.2012
Другие материалы по этой песне:

Страница создана 12.04.2012
http://primanota.ru/mattrach/dark-paradise-chords.htm
Привет, Гость.
Предлагаем пройти революционный курс по гитаре.
Подарок от PrimaNota.Ru, забирай!