PrimaNota.ru - самый крупный в мире бесплатный архив песенных текстов, аккордов, табулатур и нот


Matti Caspi - Ba-psanter - аккорды и текст, таба, видео

Регистрация Запомнить меня
Войти через:  Facebook Google Twitter Vk Yandex Mail.ru

Matti Caspi - Ba-psanter - аккорды и текст, таба, видео

Печатать
Просмотров: 119
Ba-psanter
Matti Caspi



Ba-psanter - Ehud manor  Matti caspi


I dont have this song chord in my books so... 

intro + main riff
   Gm          Cm      D7      Gm          Cm    F
E------5-5-------3-5-6-5------------5-5-------3-5-6----------
B----3-----6-5-4---------8--------3-----6-5-4-------10-8-----
G--3-----------------------7-5--3-----------------------10-8-
D--------------------5---------------------------------------
A----------5---3-------5----------------5---3-------8--------
E--3----------------------------3----------------------------

   Bb          Eb               D7,9+ (Matti or not )
E------8-8-------6-8-10-8-6-------------5-6-8-10-11----------
B----6-----9-8-8-----------10-8-6-4-6-8----------13----------
G--7----------------------------5----------------11----------
D------------------------------------------------------------
A----------8---6--------6-------5----------------------------
E--6---------------------------------------------------------

       Gm        D/F#    F   G7    Cm
Kshe..
   (A dim)
    Cm/A    Gm/Bb     A7/C#     Cm
Az ani ..

   Main riff
va-ani menagen....    


After 2 repeats he modulate it by half - G#m   D#/G  F#  G#7,C#m Etc


Hope it's good enough 

Enjoy 

Amir.


Добавлено: 23.09.2013
Другие материалы по этой песне:
  • Аккорды и текст

Страница создана 23.03.2012
http://primanota.ru/matti-caspi/ba-psanter-chords.htm
Привет, Гость.
Предлагаем пройти революционный курс по гитаре.
Подарок от PrimaNota.Ru, забирай!