PrimaNota.ru - самый крупный в мире бесплатный архив песенных текстов, аккордов, табулатур и нот


Matthieu Chedid - Je Dis Aime - таба, видео

Регистрация Запомнить меня
Войти через:  Facebook Google Twitter Vk Yandex Mail.ru

Matthieu Chedid - Je Dis Aime - таба, видео

Печатать
Просмотров: 80
Авторы музыки: Matthieu Chédid
Авторы текста: Andrée Chedid
Je dis Aime  - M (aka ) Matthieu Chedid Solo
This solo was directyl extract from his dvd « Lecon de Musique » so it's 100 % correct
Easy-Es , facebook.com/EzsMusic , Youtube.com/user/Ezsmusic

(/) Slide Up  (\) Slide Down  (h) Hammer On  (p) Pull Off  (b) Bend (r) Release (v) Vibrato

Capo 2th :

E|-----0---0--0--0--0--0---0--0--0---0--0---0---0- ----0----0--0---0--0---0--|
B|--3s--5s----5-----5------5-----5------5-------5----5s---7----7------7------|
G|---------------------------------------------------------------------------|
D|---------------------------------------------------------------------------|
A|---------------------------------------------------------------------------|
E|---------------------------------------------------------------------------|

E|-----0---0--0--0--0--0----0---0--------0------0---0-----0----0-----0-------0-------0--|
B|--7s--8s----8-----8s----10----10---10s----12-----12----13----10----8---8s----10----7--|
G|--------------------------------------------------------------------------------------|
D|--------------------------------------------------------------------------------------|
A|--------------------------------------------------------------------------------------|
E|--------------------------------------------------------------------------------------|

E|---0----0---0--0---0---0----0---0----0-----0------0--0----0---0-----0------------------|
B|---5----4------4--------4-------4----------4h5-------4h5-----4h5------0----------------|
G|---------------------------------------------------------------------------------------|
D|---------------------------------------------------------------------------------------|
A|---------------------------------------------------------------------------------------|
E|---------------------------------------------------------------------------------------|

E|--------------------------------------------------------------------------------------------|
B|--------------------------------0----0---------0----0---------------------------------------|
G|----------5b7v------------------4--------------4----------------------2----2------2----2----|
D|--------------------------------2--------------2----------------------1-----------1---------|
A|--------------------------------------------------------------------------------------------|
E|--5---5---------------3----3--------------3--------------3----2---2------------2---------2--|


E|---------0--------------------------------------------|
B|--3b5------5r3--0-------------------------------------|
G|-----------------------2b3r2p0------------------------|
D|---------------------------------2p0------------------|
A|---------------------------------------2p1p0----2-----|
E|---------------------------------------------------0--|
Добавлено: 02.06.2016
Другие материалы по этой песне:
  • Аккорды и текст

Страница создана 19.05.2016
http://primanota.ru/matthieu-chedid/je-dis-aime-chords.htm
Привет, Гость.
Предлагаем пройти революционный курс по гитаре.
Подарок от PrimaNota.Ru, забирай!