PrimaNota.ru - самый крупный в мире бесплатный архив песенных текстов, аккордов, табулатур и нот


Matthew Ryan - Some Streets Lead To Nowhere - таба, видео

Регистрация Запомнить меня
Войти через:  Facebook Google Twitter Vk Yandex Mail.ru

Matthew Ryan - Some Streets Lead To Nowhere - таба, видео

Печатать
Просмотров: 103
This is a great song made by Matthew Ryan

It's hard to hear excactly how he plays
and this tab only includes parts from the song
and I'm not even sure if it's correct

I don't really know how to play this song
so any kind of help would be wonderful

(the reason I uploaded this tab is to make people correct
the mistakes I've made so a perfect copy will be available
on this great site)

Capo 3rd

standard tuning


Intro

E|----0-------2---2--------------------------------|
B|----3--3----3---3-----------------------3-----3--|
G|----0--0h2--2---2-----------------------0---0-0--|
D|----2--0----0---0---0----0--0--0--------2---2----|
A|-3------------------0h2--2--2--2p0------2--------|
e|--------------------3----3--3--3-----0-----------|

             


and then...
E|---------------------------------|
B|---1p0------1p0-----1p0-----1p0--|
G|2--------0---------------2-------|
D|2--------2-------2-------0-------|
A|0--------3-------2---------------|
e|-----------------0---------------|



updated, thanks to the user slug, who filled in parts I'd forgotten

Добавлено: 27.04.2012
Другие материалы по этой песне:
  • Аккорды и текст

Страница создана 27.04.2012
http://primanota.ru/matthew-ryan/some-streets-lead-to-nowhere-chords.htm
Привет, Гость.
Предлагаем пройти революционный курс по гитаре.
Подарок от PrimaNota.Ru, забирай!