PrimaNota.ru - самый крупный в мире бесплатный архив песенных текстов, аккордов, табулатур и нот


Matthew Good Band - Truffle Pigs - текст песни, таба, видео

Регистрация Запомнить меня
Войти через:  Facebook Google Twitter Vk Yandex Mail.ru

Matthew Good Band - Truffle Pigs - текст песни, таба, видео

Печатать
Просмотров: 123
Matthew Good Band
Audio Of Being
Truffle Pigs        
Tabbed By Steve Nicosia


Tuning: All guitars one half step down

Guitar 1: Acoustic
Guitar 2: Clean Electric
_____________________________________________________________________________

Guitar 1
Opening Chord
|-0-|
|-0-|
|-1-| Strum for 2 bars
|-2-|
|-2-|
|-0-|


Intro & Verse:

Guitar 1
|---------0-0---0-0---------0-0---0-0---------0-0---0-0----------0-----|
|-------0-0-0-0-0-0-------0-0-0-0-0-0-------0-0-0-0-0-0--------0-0-0---|
|-----4-4-4-4-4-4-4-----4-4-4-4-4-4-4-----4-4-4-4-4-4-4------4-4-4-4---|x2
|-----2-2-2---2-2-2-----2-2-2---2-2-2-----2-2-2---2-2-2------2-2-2-2---|
|-4-4-4-4-------4-4-2-2-2-2-------2-2-0-0-0-0-------0-0--2-2-2-----2-2-|
|--------------------------------------------------------------------0-|


|---------0-0---0-0---------0-0---0-0---------0-0---0-0----------0-----|
|-------0-0-0-0-0-0-------0-0-0-0-0-0-------0-0-0-0-0-0--------0-0-0-0-|
|-----4-4-4-4-4-4-4-----4-4-4-4-4-4-4-----4-4-4-4-4-4-4------4-4-4-4-4-|
|-----2-2-2---2-2-2-----2-2-2---2-2-2-----2-2-2---2-2-2------2-2-2-2-2-|
|-4-4-4-4-------4-4-2-2-2-2-------2-2-0-0-0-0-------0-0--2-2-2-----2---|
|----------------------------------------------------------------------|

|---------0-0---------0-0------|
|-------0-0-0-0-----0-0-0-0----|
|-----4-4-4-4-4-----4-4-4-4----|
|-----2-2-2-2-2-----2-2-2-2----|
|-0-0-0-0---0-0-0-0-0-----0-2--|
|---------------------------0--|


Guitar 2 
Lead Part 1
|--7-------------------------------|
|----5---5-----5h7p5---5h7p5---5p0-|
|------6-----6-------6-------6-----|
|----------------------------------|
|----------------------------------|
|----------------------------------|

|----7---------------------------------0-|
|-(5)--5---5-----5h7p5---5h7p5---5p0---0-|   (5) Sometimes played, sometimes not
|--------6-----6-------6-------6---------|  
|----------------------------------------|
|----------------------------------------|
|----------------------------------------|


Chorus:

Guitar 1                               End of third time play this
|------0-------0-|------0-------0--|   |------0---------0-0-----------0-----|
|------0-------0-|------0-------0--|   |------0-------0-0-0-0-----0-0-0-0---|
|------2-------4-|------4-------4--|x3 |------2-----4-4-4-4-4-----4-4-4-4---|
|------4--02-2-2-|-22-2-2--02-2-2--|   |------4--02-2-2-2-2-2-2-2-2-2-2-2---|
|------x--00-0-0-|-04-4-4--02-2-2--|   |------x--00-0-----0---0-0-------0-2-|
|--2-2-2---------|-----------------|   |--2-2-2---------------------------0-|
|
| Guitar 2
| Lead Part 2
|-12-12-12-14-1414\12121212|-14-1414\12121212------12---------|
|--0--0--0--x--x-x-x-x-x-x-|--x--x-x--x-x-x-x--------0-----0--|
|--9--9--9-11-1111\9-9-9-9-|-11-1111\-9-9-9-9--8/9-----8/9----|
|--------------------------|----------------------------------|
|--------------------------|----------------------------------|
|--------------------------|----------------------------------|

|-12-12-12-14-1414\12121212|-14-1414\12121212----------------|
|--0--0--0--x--x-x-x-x-x-x-|--x--x-x--x-x-x-x----------------|
|--9--9--9-11-1111\9-9-9-9-|-11-1111\-9-9-9-9--13p9--9-11p9--|
|--------------------------|---------------------------------|
|--------------------------|---------------------------------|
|--------------------------|---------------------------------|

|-12-12-12-14-1414\12121212|-14-1414\12121212------12---------|
|--0--0--0--x--x-x-x-x-x-x-|--x--x-x--x-x-x-x--------0-----0--|
|--9--9--9-11-1111\9-9-9-9-|-11-1111\-9-9-9-9--8/9-----8/9----|
|--------------------------|----------------------------------|
|--------------------------|----------------------------------|
|--------------------------|----------------------------------|

            w/ delay
|-12-12-12-1414\12-|
|--0--0--0--x-x--x-|
|--9--9--9-1111\-9-|


Bridge:

Guitar 1
|------0-------0-|------0-------0--|------0-------0-|------0-------0--|
|------0-------0-|------0-------0--|------0-------0-|------0-------0--|
|------2-------4-|------4-------4--|------2-------4-|------4-------4--|
|------4-------2-|------2-------2--|------4-------2-|------2-------2--|
|------x--00-0-0-|-04-4-4--02-2-2--|------x--00-0-0-|-04-4-4--02-2-2--|
|--2-2-2---------|-----------------|--2-2-2---------|-----------------|
| Damn I'll bring them.....

Guitar 2
Lead Part 3
|--12------------|--12--------11---11---|-12------------|-12-------11---11----|
|-----10---10----|-----9---9-----9----9-|----10---10----|----9---9----9----9--|
|--------9-------|-------9--------------|-------9-------|------9--------------|
|----------------|----------------------|---------------|---------------------|
|----------------|----------------------|---------------|---------------------|
|----------------|----------------------|---------------|---------------------|

Solo:

Guitar 2
|-------16---------16h17p16--17----------0----------------|
|----17---17----17--------------14-14/16---16h17-17h19-17-|
|-14---------16-------------------------------------------|
|---------------------------------------------------------|
|---------------------------------------------------------|
|---------------------------------------------------------|

|-------16---------16h17p16--17----------0--------------0-|
|-------------------------------14-14/16---19p17--19p17---|
|-14---------16-------------------------------------------|x3
|---------------------------------------------------------|
|---------------------------------------------------------|
|---------------------------------------------------------|

 Outro:
|-------16---------16h17p16--17----------0----------------|
|----17---17----17--------------14-14/16---16h17-17h19-17-|
|-14---------16-------------------------------------------|
|---------------------------------------------------------|
|---------------------------------------------------------|
|---------------------------------------------------------|

                                 End Chords
|----14-16------16\14------12-|--0--0--0------|
|-----------------------------|--0--0--0------|
|-14--------13---------11-----|--9--9--4------|
|-----------------------------|--9--9--4------|
|-----------------------------|--7--6--2------|
|-----------------------------|---------------|
Добавлено: 14.03.2012
Другие материалы по этой песне:
  • Аккорды и текст

Страница создана 14.03.2012
http://primanota.ru/matthew-good-band/truffle-pigs-chords.htm
Привет, Гость.
Предлагаем пройти революционный курс по гитаре.
Подарок от PrimaNota.Ru, забирай!