PrimaNota.ru - самый крупный в мире бесплатный архив песенных текстов, аккордов, табулатур и нот


Matthew Connor - Verinoque Waiting - бас-таба, видео

Регистрация Запомнить меня
Войти через:  Facebook Google Twitter Vk Yandex Mail.ru

Matthew Connor - Verinoque Waiting - бас-таба, видео

Печатать
Просмотров: 32
Veronique Waiting by Matthew Connor
From his debut album, Farewell Motel
Tabbed by Norman

   (intro)
G|------------|------------|------------|------------|
D|------------|------------|------------|------------|
A|------------|------------|------------|------------|
E|------------|------------|------------|------------|

   (verse)
G|------------|------------|----5-------|------------|------------|
D|------------|------------|-----5------|------------|---5--------|
A|3-----------|------4----2|3-----6----8|9-----4-----|3-----------|
E|------4-----|3-----------|------------|------------|------4-----|

G|------------|---5------5-|------------|------------|------------|
D|----------5-|-----------5|3-----3-----|------------|------------|
A|----3-4-----|3-----3-----|-----3---3-1|------------|4-----------|
E|3-----------|------------|------------|4-----5--6--|------------|

G|----3-5-----|---3-----3--|------------|------------|
D|--5-------5-|--------3---|------------|------------|
A|3----------3|1-----1-----|------5-----|1-----5---5-|
E|------------|------------|3-----------|---------5--|

   (verse)
G|------------|------------|------------|------------|------------|------------|
D|----5---4-4-|------------|------------|------------|--3-3-------|------------|
A|------------|----------2-|3--2--1--0--|------------|3------3----|------------|
E|3-----------|------------|------------|4-------3---|------------|------------|

   (piano interlude)
G|------------|------------|
D|------------|------------|
A|------------|------------|
E|------------|------------|

   (strings)
G|------------|------------|------------|------------|------------|------------|
D|------------|------------|------------|------------|------------|------------|
A|------------|------------|------------|------------|------------|------------|
E|------------|------------|------------|------------|------------|------------|

    (verse)
G|--5-7-8-9b--87|8--7-5-4------|-----------|------------|------------|------------|
D|--------------|---------5----|5----------|5--5--6--6--|------------|------------|
A|--------------|-----------5--|----------5|------------|3--2--1-----|------------|
E|--------------|--------------|---3--4----|------------|------------|------------|

G|--------------|--------------|
D|---3-3--------|3-------------|
A|3------3------|--------------|
E|--------------|--------------|

   (outro)
G|------------|------------|------------|------------|------------|
D|------------|------------|------------|------------|------------|
A|3-----------|3-----------|3-----------|3-----------|------------|
E|------4-----|------4-----|------4-----|------4-----|------------|
Добавлено: 03.04.2016
Другие материалы по этой песне:
  • Аккорды и текст

Страница создана 03.04.2016
http://primanota.ru/matthew-connor/verinoque-waiting-chords.htm
Привет, Гость.
Предлагаем пройти революционный курс по гитаре.
Подарок от PrimaNota.Ru, забирай!