PrimaNota.ru - самый крупный в мире бесплатный архив песенных текстов, аккордов, табулатур и нот


Matthew Connor - Smoke Signals - бас-таба, видео

Регистрация Запомнить меня
Войти через:  Facebook Google Twitter Vk Yandex Mail.ru

Matthew Connor - Smoke Signals - бас-таба, видео

Печатать
Просмотров: 55
Уроки эстрадного вокала в Санкт-Петербурге
Smoke Signals by Matthew Connor
From his debut album, 'Farewell Motel'
Tabbed by Norman


(verse)
G|----------------|----------------|----------------|----------------|
D|----------------|----------------|----------------|----------------|
A|----------------|----------------|----------------|----------------|
E|----------------|----------------|----------------|1-------0-------|

G|----------------|----------------|----------------|----------------|
D|----------------|----------------|----------------|---3-5/---------|
A|--------3-------|5---------------|----------------|6-------3---5---|
E|5---------------|--------1-------|5-------0-------|----------------|

(chorus)
G|-----------------------------------------|
D|-----------------------------------------|
A|3---/15p14h15p14--10---9--------10-------|
E|-------------------------10-8------------|

(verse)
G|----------------|--------------------|----------------|----------------|
D|----------------|--------------------|----------------|---3-5/---------|
A|----------------|--------88--88-7-5/3|0---0-0-7---7-7-|6-------3---5---|
E|5-----/-12------|10------------------|---0-------7----|----------------|

(chorus)
G|---------------------------------------|------------------------|
D|--------10--10-9-----------------------|----------5-------------|
A|----------10------10-10----10-10-9-7/5-|-----------5------------|
E|8-8--8-------------------10------------|8-8--8--8----3-3--3--3--|

G|--------------------|
D|--------------------|
A|--------------2-----|
E|5--55--55--55---3-2-|

(bridge)
G|-------------------|-----------------------|------9--------9--|------------------5-|
D|-------------------|---7-6-----------------|----/9-----/9-----|--------------------|
A|-------------------|-------7--7h9-7--------|--7------7--------|--9-8--7-3-3--3-3---|
E|0---1/5----3-/8----|0---------------10-8-7-|------------------|--------------------|

G|-----3--------2-2-2-2|--------------------|----------------|----------------|
D|---------------------|---7-7-------7-7----|----------------|----------------|
A|1---------0----------|5---------5---------|----3/8----8-8--|7-7-7-7-7-7-7-7-|
E|---------------------|--------5-----------|---------8------|----------------|

(chorus)
G|----------------------------------------|-----------------------|
D|----------------------------------------|-----------------------|
A|----/15p14h15p14--10-10--10-9-7---------|-------10-10--------5--|
E|8-------------------------------10p9h10-|8-8-----------3-5-7----|

G|--------------------------|------------------------|
D|--------------------------|------------------------|
A|3-3------10-10--------5---|3-3-------------0-2-5-2-|
E|----------------3-5-7---7-|---------3-3--3---------|
Добавлено: 03.04.2016
Другие материалы по этой песне:
  • Аккорды и текст

Страница создана 03.04.2016
http://primanota.ru/matthew-connor/smoke-signals-chords.htm
Привет, Гость.
Предлагаем пройти революционный курс по гитаре.
Подарок от PrimaNota.Ru, забирай!