PrimaNota.ru - самый крупный в мире бесплатный архив песенных текстов, аккордов, табулатур и нот


Matthew Connor - Scheherezade - таба, видео

Регистрация Запомнить меня
Войти через:  Facebook Google Twitter Vk Yandex Mail.ru

Matthew Connor - Scheherezade - таба, видео

Печатать
Просмотров: 27
Scheherezade by Matthew Connor
From his EP, Denouement
Tabbed by Norman


      {intro, made for one guitar}
   e|-----5---------5------
   B|-6-----6---5-6---6----
   G|---7-----7---------7--
   D|----------------------
   A|-5--------------------
   E|----------------------


     (verse one)
   Dm           Am                          Dm         C     F
   Scheherazade packed up the car, made her way to New Mexico
     Dm                   Am         Bb         Dm           C              F
   A clarinet case on her lap, and a map with a scribbled address where to go
            F                         Bb       Bbmaj7           F        D             Gm   A
   I first saw her in the lobby of a motel in St. Louis, she was shaking a vending machine
                Dm                           Bb
   She said, "I told that old innkeeper I'm a pretty light sleeper
    Dm              C       Dm       C      F
   Still my window is facing the street, mmmhhhhh...
                Em            Am                         Bb  Bbmaj7  Bb
   So let's get out of here, you and I could make our escape
            F         Dm               Gm                               Asus4  A
   Come on, buy me a drink before you have a chance to think it's a mistake"


     (chorus)
            D             A                A              D
   And the moon was half perfect, and the bar was half asleep
              D            A
   Her every sigh was a sirocco

   Sweeping the bottles on the floor like tumbleweeds
e|------------------------------------------------------|
B|---------------5-7----8--7----5-----------------------|
G|-----------------------------------7----6--4----------|
D|-----------------------------------------------7------|
A|------------------------------------------------------|
E|------------------------------------------------------|

   Yes, she was the stuff of nightmares, she was the lady of my dreams
e|-----------2--------------3------2----------0-------------------------|
B|-----------3--------------3------3----------2---2-2h3-2---------------|
G|-----------2--------------3------2----------2-----------4--2----------|
D|-----------0--------------3------0----------2-----------------4-------|
A|--------------------------5-----------------0-------------------------|
E|--------------------------3-------------------------------------------|

   And the night,     and the night,    and the night is always older than it seems
e|----------2-----0-2---------3-----0-2---------2---------------0--------------2----1--|
B|----------3--/3-------------3--/3-------------3---------------2--------------3----2--|
G|----------2-----------------0-----------------2---------------2--------------2----2--|
D|----------0-----------------0-----------------0---------------2--------------0----3--|
A|----------------------------2---------------------------------0-------------------0--|
E|----------------------------3--------------------------------------------------------|


     (verse two)
   She said, "I had a king who was gorgeous and mean and he loved me like nobody could
e|-----------------------------------------------------------------------------------------------|
B|-----------------------------------------------------------------------------------------------|
G|-----------------------------------------------------------------------------------------------|
D|---------------------------3---5---7----------------------------------------5--3---5-5h7-5-----|
A|------------5-----------5------------------------------------5-----------7-----------------8-7-|
E|-----------------------------------------------------------------------------------------------|

   He made me his wife on the edge of a knife, and I got out while the getting was good
e|--------------------------------------------------------------------------------------|
B|--------------------------------------------------------------------------------------|
G|--------------------------------------------------------------------------------------|
D|----------------------3-5--7-/10--8----3----------------------------------------------|
A|----5---------------5-----------------------------------------------------------------|
E|--------------------------------------------------------------------------------------|

             F                                  Bb                        F     D        Gm      A
   I got his wallet, got his car and yeah, I've made it pretty far without ever looking behind me
              Dm                               Bb
   I got the police on my trail, won't be the first I've seen a jail"
          Dm                   C         Dm    C     F   
   I said, "girl, I think you lie to your diary", mmmhhhh....
           Am               Dm                          Cm              
   Scheherazade, she said, "Tell me, does it matter to you
       Gm             F            E          A
   If nothing of the story but the moral is true?"


     (chorus)
         D          A               A             D
   La la laaa la la laa laaa, la la laaa la la la laaa...
         D          A               A                    D
   La la laaa la la laa laaa, la la la la la la la la la laaa...

   Yes, she was the stuff of.....    night......mares,..  she was the lady of my dreams
e|----------14-14-14-14-14-14-14-14-15-15-15-15-14-14-14-14-12-12-12-10/14-12----10-10-10-10--|
B|--------------------------------------------------------------------------------------------|
G|----------11-11-11-11-11-11-11-11-12-12-12-12-11-11-11-11-9--9--9--7--11-9-----7--7--7--7---|
D|--------------------------------------------------------------------------------------------|
A|--------------------------------------------------------------------------------------------|
E|--------------------------------------------------------------------------------------------|
           D              G              D               A             D    Aaug
   And the night, and the night, and the night is always older than it seems


     (verse three)
                   Dm                        Am                 Dm           C              F
   She said, "I'll sing you to sleep if you promise to keep your back to me all through the night"
           Dm                                 Am            Bb
   In the morning she was gone, probably still had my jacket on
                 Dm             C              F
   But it ain't cold now, so I guess it's all right

   It's useless to think, even more so to speak of the part I may play in her fables
e|------------------------------------------------------------------------------------|
B|-----------------------------------------------------------------------------1------|
G|-------7----------------------5----------------------7----------0-------------------|
D|----------------------------------------------------------------2-------------------|
A|-------5---------------------------------------------5----------2-------------------|
E|------------------------------5----------------------------------------------1------|

   Now I've my own tale to tell 'bout a girl, a motel and the bracelets she left on the table
e|----------------------------------------------------------------------------------------0-------|
B|-----------------------------------------------------------------------------------------2------|
G|------7-------------------------------5----------7-------------7-----------5--------------3-----|
D|-------------------------------------------------------------------------------------------0----|
A|------5--------------------------------------------------------5--------------------------------|
E|--------------------------------------5----------6-------------------------5--------------------|
Добавлено: 03.04.2016
Другие материалы по этой песне:
  • Аккорды и текст

Страница создана 03.04.2016
http://primanota.ru/matthew-connor/scheherezade-chords.htm
Привет, Гость.
Предлагаем пройти революционный курс по гитаре.
Подарок от PrimaNota.Ru, забирай!