PrimaNota.ru - самый крупный в мире бесплатный архив песенных текстов, аккордов, табулатур и нот


Matthew Connor - Money Goes - таба, бас-таба, видео

Регистрация Запомнить меня
Войти через:  Facebook Google Twitter Vk Yandex Mail.ru

Matthew Connor - Money Goes - таба, бас-таба, видео

Печатать
Просмотров: 134
Money Goes by Matthew Connor
From his album, Farewell Motel
Tabbed by Ramonn

(verse)
  Em     B/Em  Em          Am              D7   Eb/D7  Em       G6    Cmaj7
e|--------------------------------------------------------------------------------|
B|---8------8-----8-----------5-----5---------7-----7------8-8-----5-----5--------|
G|---9------9-----9-----------5-----5---------5-----5------9-9-----4-----4--------|
D|---9------9-----9-----------5-----5---------7-----7------9-9-----5-----5--------|
A|7------------7------------------------3-/5-----6-----/7-------5-----3-----3-----|
E|-------7-----------7--6--5------5---5----------------------------------------3--|

 F#m7b5 B     Em    A     D        B  Em          Am         D7    Eb/D7 Em    G6
e|---------------------------2--2--2------------------------------------------------|
B|---1--4--4--0--0--2--2-----3--3--4-----8-------------5--------7-----7-----8----5--|
G|------4--4--0-----2--2-----------4-----9------------5---------5-----5-----9----4--|
D|------4--4--2-----2-----0--------------9-----------7----------7-----7-----9----5--|
A|------------------------------------7----------------------5-----------7----------|
E|2--------------------------------------------6--5---------------------------------|

  Cmaj7  F#m7b5 B7    Em    A    Dmaj7
e|-----------------------------------2-2-|
B|5---5/-----1-----4-----0----2----------|
G|4---4/-----2-----2-----0----2----------|
D|5---5/-----2-----4-----2----2----------|
A|--------------2------------------------|
E|--------2-----------0------------------|


(chorus)
  Bb       F        Gm     Dm      C#maj7 Ab    C     Fm    F#         Eb   B
e|------1-----5--5---------------------------4-----3-----1-----------------------|
B|--3---3--1--------3---3---6---6--6--------4-----5-----1----2--2---2--8----7----|
G|------3--------------------------5-------5-----5-----1-----3------3--8----8----|
D|---------------------------------6------6-----5-----3------4------4--8----9----|
A|-------------------------------------------------------------------------------|
E|-------------------------------------------------------------------------------|


(verse)
  Em          Am             D7    Eb/D7 Em    G6    Cmaj7      F#m7b5 B7    Em    A     Dmaj7
e|------------------------------------------------------------------------------------0--2------|
B|---8-----------5----5---------7-----7-----8-----5-----5-----------1--4--4-----0-----2--2------|
G|---9-----------5----5---------5-----5-----9-----4-----4--------------2--2-----0-----2--2------|
D|---9-----------7----7---------7-----7-----9-----5-----5--------------4--4-----2---------------|
A|7-----------------------3-/5-----6-----7-----5-----3-----3-----------------------0------------|
E|------7--6--5-----5---5-------------------------------------3--2-----------0------------------|


(interlude)
  Em          B/Em        Am/Em       B           Em          Am/Em       C           B/Em
e|------------------------------------------------------------------------------------------------|
B|---8-----8-----8-----8-----8-----8-----7-----------8-----8-----8-----8-----8-----8-----8-----8--|
G|---9-----9-----9-----9-----9-----9-----8-----------9-----9-----9-----9-----9-----9-----9-----9--|
D|---9-----9-----9-----9-----9-----9-----9-----------9-----9-----9-----9-----10----10----9-----9--|
A|7-----7-----------------0-----0-----------------7-----7-----0-----0-----------------------------|
E|------------7-----7-----------------7-----7-----------------------------8-----8-----7-----7-----|


(verse)
  Em          Am             D7    Eb/D7 Em    G6    Cmaj7     F#m7b5 B7     Em    A  
  D
e|-----------------------------------------------------------------------------------0--------|
B|---8-----------5----5---------7-----7-----8-----5-----5----------1-----4-----0-----2--------|
G|---9-----------5----5---------5-----5-----9-----4-----4----------2-----2-----0-----2--------|
D|---9-----------7----7---------7-----7-----9-----5-----5----------2-----4-----2--------0--0--|
A|7-----------------------3-/5-----6-----7-----5-----3-----3----------2------------0----------|
E|------7--6--5-----5---5-------------------------------------3--2-----------0----------------|

        Am          B           Cmaj7    D        G
e|---------0-----0-----2----------------------------------3----|
B|---------1-----1-----4--------------5--------7--------3------|
G|---------2-----2-----4------------4--------7--------4--------|
D|--------------------------------5--------7--------5----------|
A|3--2--0-----0-----2-----2-----3--------5--------5------------|
E|-------------------------------------------------------------|
Добавлено: 18.12.2015
Другие материалы по этой песне:
  • Аккорды и текст

Страница создана 23.10.2015
http://primanota.ru/matthew-connor/money-goes-chords.htm
Привет, Гость.
Предлагаем пройти революционный курс по гитаре.
Подарок от PrimaNota.Ru, забирай!