PrimaNota.ru - самый крупный в мире бесплатный архив песенных текстов, аккордов, табулатур и нот


Matthew Connor - Midnight Blue - таба, видео

Регистрация Запомнить меня
Войти через:  Facebook Google Twitter Vk Yandex Mail.ru

Matthew Connor - Midnight Blue - таба, видео

Печатать
Просмотров: 123
Midnight Blue by Matthew Connor
From his debut album, Farewell Motel
Tabbed by Norman
Capo: 1st Fret


{intro}
   Em                Am                                  B
e|-0-3---3--0-3---3--0-3---3--0-3---3--0-3---3--0-3---3--2-5---5--2-5---5-|
B|-----4--------4--------4--------4--------4--------4--------4--------4---|
G|-4--------4--------2--------2--------2--------2--------4--------4-------|
D|------------------------------------------------------------------------|
A|------------------------------------------------------------------------|
E|------------------------------------------------------------------------|


               Em               Am7
   The first raindrop hits the window
              C#dim7            Em
   There's a low and thrumming ache               (chords)
            Em                  Am7               C#dim7 - xx1212
   All the lights are flashing yellow             Gm7b5  - 2x221x
             F#       B     Em  E7                B7     - x21202
   And it's more than I can take                  Am7    - x02010
            Am7             Gm7b5
   There's laughter in the street
            B     B7           Em  E7
   From up here it all sounds canned
        Am7             Gm7b5
   Too tired to fall asleep
            C#dim7      B
   Feeling older than I am


                                    Em
   The world is bathed in midnight blue
               Am7 F     Em
   I'm still alive, and somewhere so are you
        C                       G
   I'm talking to myself, I got nothing to say
   C#dim7              B      B7            Em
   Been that way for years, what's another day?
    C                B
   Another drink or two of midnight blue


{interlude}
e|-0-3---3--0-3---3--0-3---3--0-3---3-|
B|-----4--------4--------4--------4---|
G|-4--------4--------4--------4-------|
D|------------------------------------|
A|------------------------------------|
E|------------------------------------|


   Just          other               There's         I
       around          corner......       the         used
             the                             dive        to  hau......nt
e|------0-3---3--0-3---3--0-3---3--0-3---3--2-5---5--2-5---5--0-3---3--0-3---3--|
B|----------4--------4--------4--------4--------4--------4--------4--------4----|
G|------4--------4--------2--------2--------4--------4--------4--------4--------|
D|------------------------------------------------------------------------------|
A|------------------------------------------------------------------------------|
E|------------------------------------------------------------------------------|


   Haven't been                          Hope            my
                there      forever......   they're          seat 
                     in                        keeping..         warm.........
e|----------0-3---3--0-3---3--0-3---3--0-3---3--2-5---5--2-5---5--0-3---3-------0--|
B|--------------4--------4--------4--------4--------4--------4--------4--------0---|
G|----------4--------4--------2--------2--------4--------4--------4-----------0----|
D|---------------------------------------------------------------------------2-----|
A|--------------------------------------------------------------------------2------|
E|-------------------------------------------------------------------------0-------|
      
            Am7               Gm7b5
   Oh, I've hardly left this house
             B               Em   E7
   Yeah, I've hardly left my head
                 Am7                      Gm7b5
   I bet they're mopping the floors right now
         C#dim7                        B
   And tomorrow they'll trash the place again


                                    Em
   The world is bathed in midnight blue
               Am7 F     Em
   I'm still alive, and somewhere so are you
        C                       G
   I'm talking to myself, I got nothing to say
   C#dim7              B      B7            Em
   Been that way for years, what's another day?
    C                B          Em    E7
   Another drink or two of midnight blue


 Am7            D            G                 C          
   The season changes and I'm mostly just the same
           B       B7       Em  E7   
   Oh, I swear he had your eyes
 Am7           D            G         C      
   I'm still losing at the same old games
          B               B7       Em  E7
   Still laying down the same old lies
          C         B     
   After all this time


                                    Em
   The world is bathed in midnight blue
               Am7 F     Em
   I'm still alive, and somewhere so are you
        C                       G
   I'm talking to myself, I got nothing to say
   C#dim7              B      B7            Em
   Been that way for years, what's another day?
    C                B
   Another drink or two of midnight blue


e|-0-3---3--0-3---3--0-3---3--0-3---3--0----|
B|-----4--------4--------4--------4---------|
G|-4--------4--------4--------4-------------|
D|------------------------------------------|
A|------------------------------------------|
E|------------------------------------------|
Добавлено: 23.10.2015
Другие материалы по этой песне:
  • Аккорды и текст

Страница создана 23.10.2015
http://primanota.ru/matthew-connor/midnight-blue-chords.htm
Привет, Гость.
Предлагаем пройти революционный курс по гитаре.
Подарок от PrimaNota.Ru, забирай!