PrimaNota.ru - самый крупный в мире бесплатный архив песенных текстов, аккордов, табулатур и нот


Matthew Connor - Limestone And Yew - таба, видео

Регистрация Запомнить меня
Войти через:  Facebook Google Twitter Vk Yandex Mail.ru

Matthew Connor - Limestone And Yew - таба, видео

Печатать
Просмотров: 73
Limestone and Yew by Matthew Connor
From his debut album, Farewell Motel
Tabbed by Norman


   Limestone and yew, and the things that I do..  When the nights seem to go on for days...
e|--0-------------0------------3---------------0--------------0------------2---------0----2----|
B|--0-------------1------------3---------------1--------------1------------3---------1----3----|
G|--0-------------2------------0---------------0--------------2------------4---------0----2----|
D|--2-------------2------------0---------------2--------------2------------4---------2----0----|
A|--2-------------0------------2---------------3--------------0------------2---------3---------|
E|--0--------------------------3---------------------------------------------------------------|

   Dogwood and snow, all the places I go... But without ever going away...
e|-0------------0--------------3-------0------------2---------0-----------0-----|
B|-0------------1--------------3-------1------------3---------1-----------0-----|
G|-0------------2--------------0-------0------------4---------0------0----0-----|
D|-2------------2--------------0-------2------------4---------2------2----2-----|
A|-2------------0--------------2-------3------------2---------3------2----2-----|
E|-0---------------------------3-------------------------------------0----0-----|

   The songs that I fight and the tears that I write.. On the wings of some dead seraphim...
e|------------------------------------------------------------------------------------------------|
B|------------------------------------------------------------------------------------------------|
G|-----------------------4----5----4-------------0-------------------------------------0----------|
D|------5----7---/9--7---------------------------5------------2------------/4----------------0----|
A|------------------------------------------------------------------------------------------------|
E|------------------------------------------------------------------------------------------------|

   Shadow and white, and the words I recite:     I wasn't good enough for him...
e|--0-----------0------------3----------0-----2--------2------------------0-----------|
B|--0-----------1------------3----------1-----2--------4------------------0-----------|
G|--0-----------2------------0----------0-----3--------4------------------0----0------|
D|--2-----------2------------0----------2-----4--------4------------------2----2------|
A|--2-----------0------------2----------3-----4--------2-----------------------2------|
E|--0------------------------3----------------2--------------------------------0------|

   Nimbus and pine and the waltz of the Rhine.. How he loved when I spoke of the country..
e|-0-----------0----------------------------------------0-------------2------------0-----2----|
B|-0-----------1----------------------------------------1-------------3------------1-----3----|
G|-0-----------2---4---5--/7-----5--4-------------------2-------------4------------0-----2----|
D|-2-----------2--------------------------5-------------2-------------4------------2-----0----|
A|-2-----------0----------------------------------------0-------------2------------3----------|
E|-0------------------------------------------------------------------------------------------|

   But Virginia is grey, and the things that I say... Seem to shed every shred of their beauty...
e|--------0----------0-----------------------------------------2-----------0-------------0-----------|
B|--------0----------1-----------------------------------------3-----------1-------------0-----------|
G|--------0----------2---4---5---/7-----5--4-------------------4-----------2-------------0------0----|
D|--------2----------2-------------------------5---------------4-----------2-------------2------2----|
A|--------2----------0-----------------------------------------2-----------0--------------------2----|
E|--------0-------------------------------------------------------------------------------------0----|

   Traver tine walls, promenades, and crest-falls... And a cup that's been filled past 
the brim...
e|---3--5--7----5-----7---8---------------------------------0----------------2---------0---------2----|
B|---------------------------x---x-----x------3-1-----------1----------------3---------0---------3----|
G|------------------------5--7---5-----4--------------------2----------------4---------0---------2----|
D|---5--7--9----7-----9------7---5-----4------2-2-----------2----------------4---------2---------0----|
A|----------------------------------------------------------0----------------2---------2--------------|
E|-------------------------------------------------------------------------------------0--------------|

   Tractor and plow, and it's clear to me now:    I wasn't good enough for him...
e|--0-----------0--------------3----------0-----2-----------2--------------------0----|
B|--0-----------1--------------3----------1-----2-----------4---------------0----0----|
G|--0-----------2--------------0----------0-----3-----------4---------------0----0----|
D|--2-----------2--------------0----------2-----4-----------4---------------2----2----|
A|--2-----------0--------------2----------3-----4-----------2---------------2----2----|
E|--0--------------------------3----------------2--------------------------------0----|


(guitar interlude)
e|---------------------------------------------------------------------------------|
B|---3----------------------------------------3------------------------------------|
G|--4--5--4----4---4h5-4------------2---2p0--4--5--4----4---4h5-4------------4---4-|
D|-5---------7---7--------0--0----0---0-----5---------7---7--------0--0----2---2---|
A|---------------------------------------------------------------------------------|
E|------------------------------2----------------------------------------4---------|

e|--------------------------------------------------------------------------------------|
B|---3----------------------------------------------------------------------------------|
G|--4--5--4----4---4h5-4----------------------------4---4h5-4-------4--------4-2--------|
D|-5---------7---7--------5----2---4---5--------7-----7--------5---5---2-5-----0--0--0--|
A|--------------------------5----3---3---3-/6-----6---------------3--------3------------|
E|--------------------------------------------7-----------------------------------------|


  The lights wash away... in the river....
e|---------------7-7--7-----------7-----7-7---7-----|
B|-------------------------------5-----5--7---7-----|
G|----7------9-----9--9---------5-----5---5---5-----|
D|-----9-------7---------------7-----7----7-7-7--7--|
A|------10------------------------------------------|
E|--------------------------------------------------|

  The planes  wash away  in the clouds...
e|---------------7-7--------------7-----7-7---7-----|
B|-------------------------------5-----5--7---7-----|
G|-------7--9------9--9---------5-----5---5---5-----|
D|------9----7-----------------7-----7----7-7-7--7--|
A|----10--------------------------------------------|
E|--------------------------------------------------|

 It floods and it drains and then all that remains
e|--------------------------------------------------------|
B|----3---------------------------------------------------|
G|---4-----5---4-----4----4h5-----4-----------------------|
D|--5-------------7----7-------------5--------2---4---5---|
A|---------------------------------------5------3---3---3-|
E|--------------------------------------------------------|

   Is a question... of what to do now.......
e|---------------------------------------------------------------------------------|
B|---------------------------------------------------------------------------------|
G|---------------4----4h5---4-------4-------4-------4--------------4-------4-------|
D|-----------7-----7-----------5---5--2-5-----2-5-----2-5----2-5-----2-5-----2--5--|
A|------/6-----6------------------3-------3-------3-------0------3-------3---------|
E|---------7-----------------------------------------------------------------------|

   Granite and plume, and the bitter perfume.. Of the ladies who curse at the rain...
e|-0------------0-------------------------------------0-----------2----------0----2----|
B|-0------------1-------------------------------------1-----------3----------1----3----|
G|-0------------2-----4---5---/7-5---4----------------0-----------4----------0----2----|
D|-2------------2-------------------------5-----------2-----------4----------2----0----|
A|-2------------0-------------------------------------3-----------2----------3---------|
E|-0-----------------------------------------------------------------------------------|

   Primrose and haze, and the endless cafes.. Where the day stops to wait for a train...
e|---0-----------0--------------------------------------2-------------0----------0-----------|
B|---0-----------1--------------------------------------3-------------1----------0-----0-----|
G|---0-----------2----4---5---/7--5---4-----------------4-------------2----------0-----0-----|
D|---2-----------2-----------------------5--------------4-------------2----------2-----2-----|
A|---2-----------0--------------------------------------2-------------0----------2-----3-----|
E|---0---------------------------------------------------------------------------0-----------|

   A copse on the hill, and the dust on the sill.. And a diary torn limb from limb
e|---3-----5--7----5-----7---8---------------------------0-------2-----0--------2-----|
B|------------------------------x--x--x---3--------------1-------3-----0--------3-----|
G|---------------------------5--7--5--4------------------2-------4-----0--------4-----|
D|---5-----7--9----7-----9------7--5--4---2--------------2-------4-----2--------4-----|
A|-------------------------------------------------------0-------2-----2--------2-----|
E|---------------------------------------------------------------------0--------------|

   Limestone and yew, and it's suddenly true:     I wasn't good enough for him.
e|-0--------------0-------------3--------0-----2-------2-------------------------0-------|
B|-0--------------1-------------3--------1-----2-------4-------------------------0-------|
G|-0--------------2-------------0--------0-----3-------4--------------------0----0-------|
D|-2--------------2-------------0--------2-----4-------4--------------------2----2-------|
A|-2--------------0-------------2--------3-----4-------2--------------------2----2-------|
E|-0----------------------------3--------------2---------------------------------0-------|
Добавлено: 23.10.2015
Другие материалы по этой песне:
  • Аккорды и текст

Страница создана 23.10.2015
http://primanota.ru/matthew-connor/limestone-and-yew-chords.htm
Привет, Гость.
Предлагаем пройти революционный курс по гитаре.
Подарок от PrimaNota.Ru, забирай!