PrimaNota.ru - самый крупный в мире бесплатный архив песенных текстов, аккордов, табулатур и нот


Matthew Connor - How Is July Already Over - таба, бас-таба, видео

Регистрация Запомнить меня
Войти через:  Facebook Google Twitter Vk Yandex Mail.ru

Matthew Connor - How Is July Already Over - таба, бас-таба, видео

Печатать
Просмотров: 113
How Is July Already Over? by Matthew Connor
From his debut album, Farewell Motel
Tabbed by Norman


   (verse one)
   B                   Abm
   How is July already over?
   C#m             F#
   The fan's still in the window
   B                           Abm
   There's a car parked on the shoulder
   C#m                     F
   There's a cloud hanging low
               E            F#             B   Abm
   And you say "What do you want more than anything?"
            E                    F#
   And I say "For you to already know"
            B                   Abm
   Tell me, how is July already over?
   C#m         F#
   How do the nights move so slow?


   (guitar interlude)
   B              Abm            C#m               F#
e|----------------4--------4-------------------------2--2---2----2---
B|---4-2---4---2-----4-----4-------5---5---5---7-----2----2---2----2-
G|--------------------4--4--------------5---5-----------------3-3-3--
D|---4---4---4----6----6-----------6---6-6-6-6-------4----4----------
A|-2---2---2-----------------6-2-4-----------------------------------
E|-----------------------------------4-----------3-2-----------------


   (verse two)
   B                            Abm
   How is the breeze in San Francisco?
   C#m                 F#
   How far are we from Maine?
   B                         Abm
   No, I ain't packin' up my overcoat
   C#m              F#
   I'm tired of the rain
                E         F#         B       Abm
   And you say "How much further til we get there?"
           E       F#
   And I say "Just keep your eyes on the road"
            B                            Abm
   Tell me, how is the breeze in San Francisco?
   C#m        F#           B
   How do the nights move so slow?


   (guitar interlude)
   Abm     F#      B       Abm     C#         F#
e|-4--4-4--6--6-6--7--7-6--4--4-4--4--4--6-4--2--4--6--6-6-|
B|-4--4-4--7--7-7--7-------4--4-4--6--6--6-6--2--2--7--7-7-|
G|-4--4-4--6--6-6--8-------4--4-4--6--6--6-6--3--3--6--6-6-|
D|---------------------------------------------------------|
A|---------------------------------------------------------|
E|---------------------------------------------------------|


   (verse three)
   B                    Abm
   How long have I been dreaming
   C#m                     F#
   'Bout rain and birds in Europe?
   B                           Abm
   The paper's lined up on the table
   C#m                                F#
   Stained by the ring left from your mug
                E          F#    B         Abm
   And you say "I just get so so tired sometimes"
            E              F#
   And I say "I think it's time for us to go"
            B                     Abm
   Tell me, how long have I been dreaming?
   C#m         F#
   How do the nights move so slow?


   (guitar interlude)
   B              Abm            C#m               F#
e|----------------4--------4-------------------------2--2---2----2---
B|---4-2---4---2-----4-----4-------5---5---5---7-----2----2---2----2-
G|--------------------4--4--------------5---5-----------------3-3-3--
D|---4---4---4----6----6-----------6---6-6-6-6-------4----4----------
A|-2---2---2-----------------6-2-4-----------------------------------
E|-----------------------------------4-----------3-2-----------------


   (verse four)
   B                             Abm
   How does the light break all about your face?
   C#m                       F#
   I kick a stone off of the sidewalk
   B                      Abm
   A pedicab waits just across the way
   C#m                             F#
   The lights just turned on in the coffee shop
                E              F#            B  Abm
   And you say "Did you really not see this coming?"
            E           F#
   And I say "I was pretending not to look"
            B                             Abm
   Tell me, how does that light break all about your face?
           C#m               F#
   I can't believe just how long this morning took


   (guitar interlude)
   E           Em          B                Abm        C#    F#
e|-4-----4-----3-----3-----------------4-4--4--4--6-4--2--4--6--6-6-|
B|---5------5----5------5--4--7-4-2-4--4-4--6--6--6-6--2--2--7--7-7-|
G|-----4-----------4------------------------6--6--6-6--3-----6--6-6-|
D|------------------------------------------------------------------|
A|------------------------------------------------------------------|
E|------------------------------------------------------------------|


   (verse five)
   B                   Abm
   How is July already over?
   C#m                       F#
   How am I still under your hand?
   B                    Abm
   I rather enjoyed the fireworks
   C#m                     F#
   And the days and dreams of sand
   
   And you say "My heart can be so so cold sometimes"
   
   And I say "Tell me something I don't know"
            B                   Abm
   Tell me, how is July already over?
   C#m         F#          B   Abm 
   How do the nights move so slow?
   C#m         F#          Abm
   How do the nights move so slow?
   C#m         F#          B  
   How do the nights move so slow?             


   (ending)
  B           B (barred)
e|--2---------7----|
B|--4---------7----|
G|------------8----|
D|------------9----|
A|2-------2--------|
E|----2-4---2------|
Добавлено: 03.04.2016
Другие материалы по этой песне:
  • Аккорды и текст

Страница создана 23.10.2015
http://primanota.ru/matthew-connor/how-is-july-already-over-chords.htm
Привет, Гость.
Предлагаем пройти революционный курс по гитаре.
Подарок от PrimaNota.Ru, забирай!