PrimaNota.ru - самый крупный в мире бесплатный архив песенных текстов, аккордов, табулатур и нот


Matthew Connor - Catch Up To Me - таба, видео

Регистрация Запомнить меня
Войти через:  Facebook Google Twitter Vk Yandex Mail.ru

Matthew Connor - Catch Up To Me - таба, видео

Печатать
Просмотров: 100
Уроки эстрадного вокала в Санкт-Петербурге
Catch Up To Me by Matthew Connor
From his EP, Denouement
Tabbed by Norman


                   {Main Piano Riff - played for five verses}
      Ebm       Bbm       C#        Fm        Ebm       Bbm       C#        Abm
   e|--------------------------------------------------------------------------------|
   B|--------------------------------------------------------------------------------|
   G|---------------------------------1----1-----------------------------------------|
   D|---8----8----8----8----6----6----3----3----8----8----8---8----6----6----6----6--|
   A|-6-6--6-6----8----8--4-4--4-4------------6-6--6-6----8---8--4-4--4-4----6----6--|
   E|-----------6----6--------------1----1--------------6----6-------------4----4----|

      Ebm       E         Abm       B         A                   Abm
   e|---------------------------------------------------------------------------------|
   B|---------------------------------------------------------------------------------|
   G|---------------------------------8----8----6----6----6----6----4----4----4----4--|
   D|---8----8----9----9----6----6----9----9----7----7----7----7----6----6----6----6--|
   A|-6-6--6-6----7----7----6----6----------------------------------------------------|
   E|-----------0----0----4----4----7----7----5----5----5----5----4----4----4----4----|


   Ebm                    Bbm                    C#              Fm
   I didn't even bother sleeping... I was in the air before the sun
   Ebm                     Bbm             C#                            Ab         
   Nobody knew that I was leaving... And nobody's gonna notice that I'm gone
   Ebm                E              
   Nobody waiting on the other side... 
           Abm                    B               A      Abm
   Just a baggage carousel and an expensive taxi ride...


   Ebm                        Bbm                       C#                        Fm     
   I've never felt like I was running... Just standing still while the world went by
   Ebm                         Bbm                 C#                           Ab              
   So if you never could catch up to me... Then perhaps it's because you never tried
   Ebm                           E                  
   I pulled all the punches when push came to shove... 
           Abm                      B            A    Abm
   No, you never really knew what I was capable of...


   Ebm                         Bbm               C#                 Fm
   I think that you enjoy your power... And you never want to be outdone
   Ebm                         Bbm                       C#                      Ab
   It's a high that's not from taking a pill... But from knowing that you've got one
        Ebm                        E                         
   Well baby, I've been high, and baby, I've been low...
        Abm                             B              A       Abm
   But lately I'm just tired and trying not to let it show...


   Ebm                Bbm                 C#                   Fm
   I say a prayer every night... From the foot of whatever bed I'm in
   Ebm                     Bbm                                  C#                  Ab
   I ain't hoping for some voice from the clouds... No, I don't hope for much of anything
       Ebm                           E
   The planets in their courses, the continental drift...
          Abm                           B                 A      Abm
   I just hope I settle soon before the plates begin to shift...


   Ebm                                 Bbm                          C#                           Fm     
   I'd like to think that there's some point to this... That every ending's just another twist of fate
   Ebm                            Bbm                 C#             Ab               
   I'd like to think time's never wasted... And that love is never a mistake
       Ebm                       E                         
   But you weren't a lesson and you weren't a phase...
          Abm                     B            A      Abm      
   Just a lonely inkblot across my very barest page...


   {The piano starts playing some a lick. It repeats differently, so follow the lyrics}

   A wave of whispers through the...
   e|--------|
   B|--------|
   G|------6-|
   D|-8h10---|
   A|--------|
   E|--------|

   ...greyhound... The foggy factories of midnight Dela..
   e|-------|
   B|-------|
   G|-----5-|
   D|-6h8---|
   A|-------|
   E|-------|

   ...ware
   e|--------|
   B|--------|
   G|--------|
   D|------6-|
   A|-8h10---|
   E|--------|

   I'd like to tell you about...
   e|--------|
   B|--------|
   G|------6-|
   D|-8h10---|
   A|--------|
   E|--------|

   ...everything... Though I guess you had to be there...
   e|-------------------------------------------------------------------------------|
   B|-------------                       -------------------------------------------|
   G|-----5-- repeat until the end of 'there' ----------5h6-----5h6-----5h6-----5h6-|
   D|-6h8---------                       -----------6h8-----6h8-----6h8-----6h8-----|
   A|-------------------          --------------------------------------------------|
   E|-------------------------------------------------------------------------------|

   But I've made my choices so...
   e|--------|
   B|--------|
   G|------6-|
   D|-8h10---|
   A|--------|
   E|--------|

   ...I can't complain... When I'm standing in a crowd and hearing only your..
   e|----------|
   B|----------|
   G|-----5h6--|
   D|-6h8------|
   A|----------|
   E|----------|

   ...name...
   e|---------|
   B|---------|
   G|-----5h6-|
   D|-6h7-----|
   A|---------|
   E|---------|


   {Piano and String interlude}


   {Short classical guitar section}
   e|--------------------------------8---|
   B|-------6-6--------------6------6----|
   G|-----5-----5----------7-------7-----|
   D|---6---------6------8--------8------|
   A|-5-------------5--------------------|
   E|------------------6--------6--------|


             Eb                      Fm              Gm                         
   I've been missing someone I ain't got no business missing
             Cm                     Dm            Eb        
   I've been kissing someone hasn't been paying attention
          Fm                                 Gm     Ab           
   To the damage she's done just by being anyone but you
   Bb   Eb                          Fm             Gm              
   So I climbed up to the top and I stood out on a ledge
             Cm                           Dm      Eb                
   But there ain't no pot of gold at the rainbow's edge
        Fm                                         Gm     
   I've seen a lot of things and I've come a long way
          Ab                                 Bb     
   And I know it's gonna catch up to me someday...


   {Brief interlude}

   Eb - (Fm - Gm) - Cm - (Dm - Eb) - Fm - (Gm) - Ab - Bb


        Eb          
   So I climbed up to the top and I stood out on a ledge
            Cm
   But there ain't no pot of gold at the rainbow's edge
        Fm
   I've been a lot of things and I've come a long way
        Fm                               Bb Cm
   And I know it's gonna catch up to me someday...


      Dm   Eb
   e|-----------|
   B|-6--6h8----|
   G|-7--7/8----|
   D|-7--7/8----|
   A|-----------|
   E|-----------|
Добавлено: 23.10.2015
Другие материалы по этой песне:
  • Аккорды и текст

Страница создана 23.10.2015
http://primanota.ru/matthew-connor/catch-up-to-me-chords.htm
Привет, Гость.
Предлагаем пройти революционный курс по гитаре.
Подарок от PrimaNota.Ru, забирай!