PrimaNota.ru - самый крупный в мире бесплатный архив песенных текстов, аккордов, табулатур и нот


Matthew Connor - Bridge Of Sighs - таба, видео

Регистрация Запомнить меня
Войти через:  Facebook Google Twitter Vk Yandex Mail.ru

Matthew Connor - Bridge Of Sighs - таба, видео

Печатать
Просмотров: 24
Bridge of Sighs by Matthew Connor
From his EP, Denouement
Tabbed by Norman
*loosely interpreted for the most part

(intro)
e|----------------------------------------------------|
B|--------------------7-------------------------------|
G|-----------------------9------------------2---------|
D|---------------9-10------9----9h10--7-5-7-4---4-----|
A|------9--10-12----------------------------0---2-----|
E|-0-----------------------------------------------0--|

(verse)
e|-----------------0----------------------------------------------------|
B|------------/7-----0-------1------------------------------------------|
G|-----2-4-5---------------2-----2-0-------7----5-4-----4-----4-2-4-2---|
D|-4-5-------------------2-----2------4-5---5-------7--5----5---0-----4-|
A|---------------------0--------------0-------0-------5---5-------------|
E|----------------------------------------------------------------------|

e|------------------------0----0-----------5-------5---------------------------0--|
B|----------------------1------1-----------------3----------2-------2-------2-----|
G|-----0-2-/4-2-0-----2------------------7-----2----------4-------4-------3-------|
D|---4------------4-2----------2-------7----------------3-------3-------2---------|
A|---------------------------0---7-6-5--------------------------------------------|
E|-0-----------------------------------------2-------4--------3-------2-----------|

e|----------------4-----7--7-6-4----------------------------------------------|
B|---4-5-4-------5-----4---------4---4-----2---2------4-5-4-0-----------------|
G|-6-------6----6-----4--------------4----2----2-----2--------1---1---2-4-2---|
D|-----------6-6-----6-------------6-----2-----2----2-------------2---------3-|
A|--------------------------------------0----0---0-0----------2-------4-------|
E|-------------------4---------4--------------------------------0---0---------|

e|-------------------2-0----0------------4--------5--5--4--2-------2-------------------|
B|------------1-----1--1---0-------------6-------2---2--2--2------2----2-4---4---------|
G|-2-1-2-4---2-----2------0-----------4--4------2----2--2--2-----2----2--4---4---------|
D|----------2---2-2------1-----------6---------4-----4--4--4----4----4---4-4-4-4-------|
A|---------0--------------------2---4---------4------4---------4---------2--------2----|
E|-2-----4--------------------0---0----------2-------2--------2------------------------|

(chorus)
   I left you on...... the bridge of sighs...
e|--------------4---4--------------2---2---2-|
B|--------------5---5--------------2---2---2-|
G|--------------4---4--------------2---2---2-|
D|--------------6---6--------------4---3---2-|
A|--------------7---6--------------4---4---4-|
E|---------------------------------2---2---2-|
   And I thought once more.... of our last dance..
e|-----------------2--------2-----------2----0---------|
B|-----------------2--------4-----------3----0---------|
G|-----------------2--------4-----------4----1--1-2-4--|
D|-----------------4--------4-----------4----2---------|
A|-----------------4--------2-----------2----2---------|
E|-----------------2-------------------------0---------|
   How you stood on my feet when you didn't know the steps
e|----0-------------0-------0-----------------------4-------|
B|----2-------------2-------0-----------------------5-------|
G|----2-------------0-------1-----------------------6-------|
D|----2-------------2-------2-----------------------6-------|
A|----0-------------1-------2-----------------------4-------|
E|--------------------------0-------------------------------|
   But you never really stood a chance
e|---2-----------------2-----0---------|
B|---2-----------------4-----0---------|
G|---2-----------------4-----1---------|
D|---4-----------------4-----2---------|
A|---4-----------------2-----2---------|
E|---2-----------------------0---------|

(string section)
e|----------------14-15-------------------------------------------|
B|----------12-13-------13-------------------15-13-12--11-10------|
G|-11-12-14----------------------------11-12-----------------9----|
D|----------------------------12-13-12----------------------------|
A|----------------------------------------------------------------|
E|----------------------------------------------------------------|

(string section for verse)
e|------------------------------------------------------------------------------------|
B|------15-13-12-------------------12----12--------------------13-12-----15-----------|
G|---------------14-12-11-12-14-------14----12-11-12------------------------------11--|
D|---------------------------------------------------12-14------------14------12------|
A|------------------------------------------------------------------------------------|
E|------------------------------------------------------------------------------------|

e|-----------------------------------------------------------------------------------------|
B|------------------------------------------------------7-9-7-6-----------------------6-7--|
G|-13-12-13-------------------8--6-------9-8-6------8-9----------6--5--4----------8-9------|
D|-----------------------9---------9-8-9----------6-----------------------------7----------|
A|----------14-13------7---7---------------------------------------------------------------|
E|-----------------------------------------------------------------------------------------|

(chorus)
   I left you on...... the bridge of sighs...
e|--------------4---4--------------2---2---2-|
B|--------------5---5--------------2---2---2-|
G|--------------4---4--------------2---2---2-|
D|--------------6---6--------------4---3---2-|
A|--------------7---6--------------4---4---4-|
E|---------------------------------2---2---2-|
   And I thought once more.... of our last dance..
e|-----------------2--------2-----------2----0---------|
B|-----------------2--------4-----------3----0---------|
G|-----------------2--------4-----------4----1--1-2-4--|
D|-----------------4--------4-----------4----2---------|
A|-----------------4--------2-----------2----2---------|
E|-----------------2-------------------------0---------|
   How you stood on my feet when you didn't know the steps
e|----0-------------0-------0-----------------------4-------|
B|----2-------------2-------0-----------------------5-------|
G|----2-------------0-------1-----------------------6-------|
D|----2-------------2-------2-----------------------6-------|
A|----0-------------1-------2-----------------------4-------|
E|--------------------------0-------------------------------|
   But you never really stood a chance...
e|---2-----------------2-----0-----0---|
B|---2-----------------4-----0-----3---|
G|---2-----------------4-----1-----1---|
D|---4-----------------4-----2-----0---|
A|---4-----------------2-----2-----2---|
E|---2-----------------------0-----0---|

(strings + vocal interlude)
    Sospiri.......    Sospiri.......    Sospiri.......    Sospiri.......
e|-----0-----------------2-------0---------4-------2---------2-------0----|
B|-----2-----------------4-------0---------5-------2---------4-------0----|
G|-----2-----------------4-------1---------6-------2---------4-------1----|
D|-----2-----------------4-------2---------4-------4---------4-------2----|
A|-----0-----------------2-------2---------4-------4---------2-------2----|
E|-------------------------------0-----------------2-----------------0----|

e|-----------7---------5--7-5---5-4----|
B|-------5-7----9-------------5--------|
G|-6-5-6----------9--------------------|
D|------------------9------------------|
A|-------------------------------------|
E|-------------------------------------|

(guitar + vocal ending)
e|------------------------------------------------------|
B|-----5-------5-------5-------5-------5-------5--------|
G|---4---4---4---4---8---8---8---8---4---4---4---4------|
D|-6-------6-------7-------7-------6-------7-------6----|
A|-7-------7-------0-------0-------7-------0-------7----|
E|-------------------------------------------------0----|
Добавлено: 03.04.2016
Вам также может быть интересно:
Другие материалы по этой песне:
  • Аккорды и текст

Страница создана 03.04.2016
http://primanota.ru/matthew-connor/bridge-of-sighs-chords.htm
Привет, Гость.
Предлагаем пройти революционный курс по гитаре.
Подарок от PrimaNota.Ru, забирай!