PrimaNota.ru - самый крупный в мире бесплатный архив песенных текстов, аккордов, табулатур и нот


Маттео Каркасси - Waltz In C - таба, видео

Регистрация Запомнить меня
Войти через:  Facebook Google Twitter Vk Yandex Mail.ru

Маттео Каркасси - Waltz In C - таба, видео

Печатать
Просмотров: 320
E-|---Song:-Waltz-in-C-----------------------------|
A-|---Composer:-Matteo-Carcassi--------------------|
D-|---Transcription-by:Christian Liang-------------|
G-|---E-Mail:christian.liang@gmail.com-------------|   
B-|---http://www.classclef.com---------------------|
E-|---Enjoy!---------------------------------------|



Waltz in C by Matteo Carcassi



[1]                                                     

E|-------------|-------------|-------------|
B|-------------|-1---1---1---|-3-----------|
G|---------0---|-------------|-0-------0---|
D|-------------|-2---2---2---|-------------|
A|-------------|-------------|-------------|
E|-------------|-------------|-------------|
 | | | | | | | | | | | | | | | | | | | | | |
R          i     a   m   i     m       i     
                 p   p   p     i                 
L                1   1   1     4             
                 2   2   2                                               


[4]

E|-----1---1---|-----0-------|-------------|
B|-----0---0---|-----1-------|-1---1---1---|
G|-------------|---------0---|-------------|
D|-------------|-------------|-2---2---2---|
A|-------------|-3-----------|-------------|
E|-3==========-|-------------|-------------|
 | | | | | | | | | | | | | | | | | | | | | |
R  p   a   a     p   a   i     a   m   i
       m   m         m         p   p   p
L  3   1   1     3   1         1   1   1
                               2   2   2


[7]
E|-------------|-----1---1---|-0----------||
B|-3-----------|-----0---0---|-1----------||
G|-0-------0---|-------------|-----------*||
D|-------------|-------------|-----------*||
A|-------------|-------------|-3----------||
E|-------------|-3==========-|------------||
 | | | | | | | | | | | | | | | | | | | | | |
R  m       i     p   a   a     a                    
   i                 m   m     m                               
                               p
L  4             3   1   1     1                           
                               3     

[10]

E||------------|-------------|-------------|
B||------------|-----0---0---|-----1---1---|
G||*-------0---|-----0---0---|-----0---0---|
D||*-----------|-3==========-|-2==========-|
A||------------|-------------|-------------|
E||------------|-------------|-------------|
 | | | | | | | | | | | | | | | | | | | | | |
R          i     p   m   m     p   m   m
                     i   i         i   i
L                3             2   1   1


[13]

E|-----1---1---|-----0---0---|-----3---3---|
B|---0---0---0-|---1---1---1-|-----2---2---|
G|-------------|-------------|-------------|
D|-0==========-|-------------|-------------|
A|-------------|-3==========-|-0==========-|
E|-------------|-------------|-------------|
 | | | | | | | | | | | | | | | | | | | | | |
R  p m a m a m   p m a m a m   p   a   a     
                                   m   m                   
L      1   1     3 1   1   1       4   4         
                                   2   2                                


[16]

E|-----1-------|-------------|------------||
B|---------3---|-0-------0---|-1----------||
G|-------------|-----0-------|-----------*||
D|-0==========-|-------------|-----------*||
A|-------------|-------------|-3----------||
E|-------------|-3==========-|------------||
 | | | | | | | | | | | | | | | | | | | | | |
R  p   a   m     m   i   m     m
                 p             p

L      1   4     3             1
                               3

[19]
E|----------0--|-0-------0---|-0-------0---|
B|-------------|-1-----------|-0-----------|
G|-------------|-2-----------|-1-----------|
D|-------------|-------------|-------------|
A|-------------|-----0-------|-------------|
E|-------------|-------------|-----0-------|
 | | | | | | | | | | | | | | | | | | | | | |
R          m     a   p   a     a   p   a     
                 m             m             
                 i             i                                         
L                1             1             
                 2                                                       

[22]

E|---0---0---0-|---0-----0---|-0-------0---|
B|-3---0---3---|-1-----------|-1-----------|
G|-------------|-----2-------|-2-----------|
D|-------------|-------------|-------------|
A|-------------|-0==========-|-----0-------|
E|-0==========-|-------------|-------------|
 | | | | | | | | | | | | | | | | | | | | | |
R  m a m a m a   m a i   a     a   p   a
   p             p             m
                               i
L  4       4     1   2         1
                               2



[25]
E|-0-------0---|---0---0---0-|------------||
B|-0-----------|-3---0---0---|------------||
G|-1-----------|-------------|-2---------*||
D|-------------|-------------|-----------*||
A|-------------|-------------|-0----------||
E|-----0-------|-0==========-|------------||
 | | | | | | | | | | | | | | | | | | | | | |
R  a   p   a     m a m a m a   i
   m             p             p
   i        
L  1             4             2

Добавлено: 09.07.2012
Другие материалы по этой песне:
  • Аккорды и текст

Страница создана 09.07.2012
http://primanota.ru/matteo-carcassi/waltz-in-c-chords.htm
Привет, Гость.
Предлагаем пройти революционный курс по гитаре.
Подарок от PrimaNota.Ru, забирай!