PrimaNota.ru - самый крупный в мире бесплатный архив песенных текстов, аккордов, табулатур и нот


Маттео Каркасси - Prelude In A Minor - таба, видео

Регистрация Запомнить меня
Войти через:  Facebook Google Twitter Vk Yandex Mail.ru

Маттео Каркасси - Prelude In A Minor - таба, видео

Печатать
Просмотров: 392
"Prelude in A minor" by Matteo Corcassi

Pure classical guitar needed. It can always be played by an accoustic one, 
or even an electric one, but it won't give the genuine sound needed.

Transcription by Hani jabbour, lebaneese student at Ottawa university, 
computer engineering.


This music is really great, but has to be be played smoothly and all the 
notes should RING, OK?
try to paly with a lot of feelings, if played well, the music will be very 
romantic and touching.

it is a 4/4, ( you can notice that each note is a half ) so it must be 
played a bit quickly, but without changing the rythm.

E----------------------------------------------------------------
B---------1-----1-----------------1-----1-----------------0-----0
G------2-----2-----2-----2-----2-----2-----2-----2-----2-----2---
D---------------------------3-----------------3-----0------------
A---0-----------------0------------------------------------------
E----------------------------------------------------------------


E------------------------------------------------0---------------
B------------------3-----3-----------------1-----------1---------
G---2-----2-----1-----1-----1-----1-----2-----2-----2-----2-----0
D------0-----2-----------------2---------------------------------
A------------------------------------0---------------------------
E-------------------------------------------------------------3--


E---------1-----------------------0-----------------------0------
B---0-----------0-----------1-----------1-----------3-----------3
G------0-----0-----0-----0-----0-----0-----0-----1-----1-----1---
D----------------------------------------------------------------
A---------------------3-----------------------2------------------
E----------------------------------------------------------------


E----------------------------------------------------------------
B------------1-----------1-----------0-----------0-----------1---
G---1-----2-----2-----2-----2-----2-----2-----1-----1-----2-----2
D------------------3-----------0---------------------------------
A------0-----------------------------------------------0---------
E------------------------------------------0---------------------


E---0-----------------------0-----------------------0------------
B---------1-----------0-----------0-----------1-----------1------
G------2-----2-----1-----1-----1-----1-----2-----2-----2--------1
D----------------------------------------------------------------
A---------------------------------------0------------------------
E---------------0--------------------------------------------0---


E---------0-----------------------0-----------------------0------
B---3-----------3-----------1-----------1-----------1-----------1
G------1-----1-----1-----2-----2-----2-----2-----2-----2-----2---
D----------------------------------------------------------------
A---------------------0-----------------------0------------------
E----------------------------------------------------------------


E----------I   I
B----------I   I
G---2------I 0 I
D----------I 0 I
A------0---I   I
E----------I   I
     
Добавлено: 20.09.2013
Другие материалы по этой песне:
  • Аккорды и текст

Страница создана 20.09.2013
http://primanota.ru/matteo-carcassi/prelude-in-a-minor-chords.htm
Привет, Гость.
Предлагаем пройти революционный курс по гитаре.
Подарок от PrimaNota.Ru, забирай!