PrimaNota.ru - самый крупный в мире бесплатный архив песенных текстов, аккордов, табулатур и нот


Маттео Каркасси - Opus 60 No 7 Study 7 In A Minor - таба, видео

Регистрация Запомнить меня
Войти через:  Facebook Google Twitter Vk Yandex Mail.ru

Маттео Каркасси - Opus 60 No 7 Study 7 In A Minor - таба, видео

Печатать
Просмотров: 226
Уроки эстрадного вокала в Санкт-Петербурге
E-|---Song:-Study7-in-A-Minor----------------------|
A-|---Author:-Matteo-Carcassi----------------------|
D-|---Transcription-by:Christian Liang-------------|
G-|---E-Mail:christian.liang@gmail.com-------------|
B-|---http://www.classclef.com---------------------|
E-|---Enjoy!---------------------------------------|

==========================================================================
           STUDY No 7 in Am - MATTEO CARCASSI  (Op 60 No 7)
==========================================================================


[1]
E|-------------------------------|----1-------0------------------|
B|-------------------------------|--------------------3-------1--|
G|--2-2-2---2-2-2---2-2-2---2-2-2|--2---2---2---2---1---1---2---2|
D|----------------3-------2------|0------------------------------|
A|0-------3----------------------|--------3-------2-------0------|
E|-------------------------------|-------------------------------|

R p a m i p a m i p a m i p a m i p i a i p i a i p i m i p i m i
L   3 3 3 4 3 3 3 4 3 3 3 2 3 3 3   2 1 2 3 2   2 2 1 4 1   2 1 2

[3]

E|-------------------------------|----------------------------0--|
B|----0-------0-------0-------0--|----1-------1-------0----------|
G|--2---2---2---2---2---2---2---2|--2---2---2---2---2---2---1---1|
D|0-------1-------2-------3------|2---------------2--------------|
A|-------------------------------|-------------------------------|
E|-------------------------------|--------0---------------0------|

R p i m i p i m i p i m i p i m i p i m i p i m i p i m i p i A i
L   2   2 1 2   2 1 2   2 3 2   2 2 3 1 3   3 1 3 2 3   3   1   1

[5]
E|-------------------------------|----1-------0------------------|
B|-------------------------------|--------------------3-------1--|
G|--2-2-2---2-2-2---2-2-2---2-2-2|--2---2---2---2---1---1---2---2|
D|----------------3-------2------|0------------------------------|
A|0-------3----------------------|--------3-------2-------0------|
E|-------------------------------|-------------------------------|

R p a m i p a m i p a m i p a m i p i m i p i m i p i m i p i m i
L   3 3 3 4 3 3 3 4 3 3 3 2 3 3 3   2 1 2 3 2   2 2 1 4 1   2 1 2

[7]

E|------------------------------0|------0-1-0---0-5--------------|
B|----0-------0-------1-------0--|----1-------4------------------|
G|--2---2---2---2---2---2---1----|--2----------------------------|
D|0-------1-------2--------------|-------------------------------|
A|-------------------------------|0------------------------------|
E|------------------------0------|-------------------------------|

R p i m i p i m i p i m i p i m A p i m a m i m m i
L   2   2 1 2   2 2 3 1 3   1       3 1   1   3   4

2nd part of song (played twice)

[9]
E|-------------------------------|------------0-------1-------2--|
B|--1-1-1---1-1-1---1-1-1---1-1-1|----3-----2---2---3---3---1---1|
G|----------------2-------0------|--2---2------------------------|
D|--------2----------------------|3-------2-------0-------0------|
A|3------------------------------|-------------------------------|
E|-------------------------------|-------------------------------|

R p a m i p a m i p a m i p a m i p i m i p i m i p i m i p i m i
L 4 1 1 1 2 1 1 1 3 1 1 1   1 1 1 3 2 4 2 1 2   2   4 1 4   1 2 1

[11]

E|----3-------3-------2-------1--|----0-----------------------0--|
B|--0---0------------------------|------------3-------1----------|
G|0---------0---0---0---0---0---0|--0---0---0---0---0---0---0---0|
D|-------------------------------|--------0-------2--------------|
A|----------------0-------2------|3-----------------------3------|
E|--------3----------------------|-------------------------------|

R p i m i p i a i p i a i p i a i p i a i p i m i p i m i p i a i
L   3   1   3       3   2   1   3           4   2   1   3

[13]
E|-------------------------------|------------------0-0-0--------|
B|----------2-2-2---3-3-3--------|--0-0-0---4-4-4-----------3-3-3|
G|--2-2-2-------------------5-5-5|------------------------1------|
D|3-------2-------0-------4------|5-------3-------2--------------|
A|-------------------------------|-------------------------------|
E|-------------------------------|-------------------------------|

R p a m i p a m i p a m i p a m i p a m i p a m i p a m i p a m i

L 3 2 2 2 1 2 2 2   2 2 2 3 4 4 4 3       2 4 4 4 2       1 4 4 4

[15]

E|-------------------------------|------0-1-0-0-0-4-0-0-0-7-0-0-0-5-0-0-0|
B|--1-1-1---1-1-1---0-0-0--------|----0----------------------------------|
G|2-------------------------2-2-2|--1------------------------------------|
D|----------------0-------1------|2--------------------------------------|
A|--------0----------------------|---------------------------------------|
E|-------------------------------|--------------------------------0------|

R p a m i p a m i p a m i p a m i p i m a m i m i m i m i m i m i m i m i
                                                                  p
L 3 1 1 1   1 1 1         2 3 3 3 2 1     1       1       4       3

[17]
E|1-0---0---0---0---0---0-------0|1-0-0-0-4-0-0-0-7-0-0-0-5-0-0-0|
B|----4---3---1---0-----------0--|-------------------------------|
G|--------------------2-----1----|-------------------------------|
D|------------------------2------|-------------------------------|
A|-------------------------------|-------------------------------|
E|-------------------------------|------------------------0------|

R m i p i p i p i p i p i p i m a m i m i m i m i m i m i m i m i
                                                          p
L 1   4   3   1       3   2 1     1       1       4       3

[19]

E|1-0---0---0---0---0---0-------0---0---0---0---0---0---0|
B|----4---3---1---0--------------------------------------|
G|--------------------2---1------------------------------|
D|----------------------------3---2---1---2---0----------|
A|------------------------------------------------3---2--|
E|-------------------------------------------------------|

R m i p i p i p i p i p i p i p i p i p i p i p i p i p i
L 1   4   3   1       2   1   3   2   1   2       3   2

[20]
E|-------------------------------|----1-------0------------------|
B|-------------------------------|--------------------3-------1--|
G|--2-2-2---2-2-2---2-2-2---2-2-2|--2---2---2---2---1---1---2---2|
D|----------------3-------2------|0------------------------------|
A|0-------3----------------------|--------3-------2-------0------|
E|-------------------------------|-------------------------------|

R p a m i p a m i p a m i p a m i p i m i p i m i p i m i p i m i

L 4 1 1 1 2 1 1 1 3 1 1 1   1 1 1 3 2 4 2 1 2   2   3 1 3   1 2 1

[22]
  III.........
E|-------------------------------|------------0-------1-------0--|
B|--------------------2-------2--|----3--------------------------|
G|----3-------3-----0---0---0---0|--2---2---2---2---2---2---2---2|
D|--3---3---3---3-2-------2------|3---------------0-------2------|
A|5-------5----------------------|--------4----------------------|
E|-------------------------------|-------------------------------|

R p i m i p i m i p i m i p i m i p i m i p i m i p i m i p i m i
L 3 1 1 3 1 1 1 1 2   3   2   3   3 2 4 2 3 1   1   2 1 2 2 3   2

[24]
E|------------------0-0-0--------|-------------------------------|
B|--4-4-4---4-4-4-----------3-3-3|--1-1-1---0-0-0-------------1--|
G|--------2-------1--------------|2-----------------2-2-2---2---2|
D|4-----------------------2------|--------2-------3--------------|
A|-------------------------------|------------------------3------|
E|-------------------------------|-------------------------------|

R p a m i p a m i p a m i p a m i p a m i p a m i p a m i p i m i
L 3 4 4 4 1 4 4 4 1       2 4 4 4 3 1 1 1 2       3 2 2 2 3 2 1 2

[26]

E|------------------------------0|------0-1-0---0-5-------------||
B|----0-------0-------1-------0--|----1-------4-----------------||
G|--2---2---2---2---2---2---1----|--2---------------------------||
D|0-------1-------2--------------|------------------------------||
A|-------------------------------|0-----------------------------||
E|------------------------0------|------------------------------||

R p i m i p i m i p i m i p i m A p i m a m i i m i
L   2   2 1 2   2 2 3 1 3   1       3 1   1   3   4

======
Legend
======
Right
p = pulgar = thumb
i = indice = index
m = medio = middle
a = anular = ring

Left
p = pull off
h = hammer on
/ = slide
= = suspend/hold Note
II2 = Barre at fret 2 bottom 2 strings
T = Fret Top String with Thumb

-----
Notes
-----

This song is fun and a good practise and is study no 7 of 25. This song is
easier than Opus 60 No 1 (see my previous article), so this would be a good
entry point if you want to learn Carcassi-one of the pioneer of the classical
guitar itself.

There are 2 main patterns (pami) and (pimi). When learning this song, it
helps to read ahead to get better prepared to interchange between these 2
patterns. There's only 1 Barre Chord in Bar [22]. Play Part 2 twice. The
hardest part of the song to me is at Bar [16] and Bar [18] just after the
E arpeggio, there is a serie of (mimimi) that needs to be delivered
actually and in tempo.

Tip
(pami) at a faster speed becomes tremolo.
Добавлено: 10.03.2012
Другие материалы по этой песне:

Страница создана 10.03.2012
http://primanota.ru/matteo-carcassi/opus-60-no-7-study-7-in-a-minor-chords.htm
Привет, Гость.
Предлагаем пройти революционный курс по гитаре.
Подарок от PrimaNota.Ru, забирай!