PrimaNota.ru - самый крупный в мире бесплатный архив песенных текстов, аккордов, табулатур и нот


Маттео Каркасси - Andantino In C Major - таба, видео

Регистрация Запомнить меня
Войти через:  Facebook Google Twitter Vk Yandex Mail.ru

Маттео Каркасси - Andantino In C Major - таба, видео

Печатать
Просмотров: 388
E-|---Song:-Andantino------------------------------|
A-|---Author:-Matteo Carcassi----------------------|
D-|---Transcription-by:Christian Liang-------------|
G-|---E-Mail:christian.liang@gmail.com-------------|
B-|---http://www.classclef.com---------------------|
E-|---Enjoy!---------------------------------------|

Andantino in C Major Matteo Carcassi (1792-1853)

AABA

Play [A] twice followed by [B] and lastly [A] once to close.

[A]

E|----------------------|------------------------|
B|-----------1-----1----|-0-----0-----3-----3----|
G|--------------0-----0-|----0-----0-----0-----0-|
D|-----------2-----2----|-0-----0-----3-----3----|
A|----------------------|------------------------|
E|----------------------|------------------------|

L            1     1                  4     4
             2     2                  3     3
R            m  i  m      m  i  m  i  m  i  m  i
             p     p      p     p     p     p


E|-------------0-----0----|-1-----1----------------|----||
B|-1-----1----------------|-------------0-----0----|-1--||
G|----0-----0-----0-----0-|----0-----0-----0-----0-|----||
D|-2-----2----------------|-0-----0----------------|----||
A|-------------3-----3----|------------------------|-3--||
E|------------------------|-------------3-----3----|----||

L  1     1     3     3       1     1    3     3      1
   2     2                                           3

R  m  i  m  i  a  i  a  i   a  i  a  i  m  i  m  i   m
   p     p     p     p      p     p     p     p      p

[B]

E|-----------0-----0----|-1-----1-----0-----0----|
B|-----------1-----1----|-3-----3-----2-----2----|
G|--------------0-----0-|----0-----0-----0-----0-|
D|----------------------|------------------------|
A|----------------------|------------------------|
E|----------------------|------------------------|

LH           1     1      1     1    2      2
                          4     4
RH           m  p  m  p   m  p  m  p  m  p  m  p
             i     i      i     i     i     i


E|-1-----1-----2-----2----|-3-----3-----2-----2----|-3--|
B|-3-----3-----1-----1----|-0-----0-----1-----1----|-0--|
G|----0-----0-------------|------------------------|-0--|
D|----------------0-----0-|----0-----0-----0-----0-|----|
A|------------------------|------------------------|----|
E|------------------------|------------------------|----|

L  1     1     2     2      3     3     2     2      3
   4     4     1     1                  1     1

L  m  p  m  p  m  p  m  p   m  p  m  p  m  p  m  p   m
   i     i     i     i      i     i     i     i      i
                                                     p
Добавлено: 28.06.2012
Другие материалы по этой песне:

Страница создана 03.03.2012
http://primanota.ru/matteo-carcassi/andantino-in-c-major-chords.htm
Привет, Гость.
Предлагаем пройти революционный курс по гитаре.
Подарок от PrimaNota.Ru, забирай!