PrimaNota.ru - самый крупный в мире бесплатный архив песенных текстов, аккордов, табулатур и нот


Matt White - Best Days - таба, видео

Регистрация Запомнить меня
Войти через:  Facebook Google Twitter Vk Yandex Mail.ru

Matt White - Best Days - таба, видео

Печатать
Просмотров: 174
Уроки эстрадного вокала в Санкт-Петербурге
----------------------------------------------------------------------------
                             Best Days - Matt White
----------------------------------------------------------------------------
Tabbed by: Raven M.
Email: smookums14@yahoo.com

Tuning: 4th capo / standard tuning


                              ==intro==

e|-------------------------------------------------------------------------|
B|---3-------3-------3----------3---------3-------3-----3------------------|
G|---0-------0-------0----------0---------0-------0-----0------------------|
D|-------------------------------------------------------------------------|
A|-3---3-0h2-----2-0----0---0-2---------3---3-0h2---2-0---0----------------|
E|------------------------3---------------------------------3--------------|

                                ==verse 1==

e|-------------------------------------------------------------------------|
B|---3-------3-------3----------3---------play-----------------------------|
G|---0-------0-------0----------0-------------this-------------------------|
D|------------------------------------------------part---------------------|
A|-3---3-0h2-----2-0----0---0-2-----------------------three----------------|
E|------------------------3--------------------------------times-----------|
                                                               then.....
e|-------------------------------------------------------------------------|
B|--3-3--x3----3--3--------------------------------------------------------|
G|--2-2--x2----2--2--------------------------------------------------------|
D|--0-0--x0---0------------------------------------------------------------|
A|--0-0--x0------0---------------------------------------------------------|
E|-------------------------------------------------------------------------|
                 repeat once more

                             ==chorus==

e|-------------------------------------------------------------------------|
B|---3-------3------3------3-----------------------------------------------|
G|---2-------2------2------2-----------------------------------------------|
D|-----------------------0---0---------------------------------------------|
A|-------0h2----2-3----3---------------------------------------------------|
E|-3---3-------------------------------------------------------------------|
                 ^^play 4 times^^


                            ==verse 2==
e|-------------------------------------------------------------------------|
B|---3-------3-------3----------3---------play-----------------------------|
G|---0-------0-------0----------0-------------this-------------------------|
D|------------------------------------------------part---------------------|
A|-3---3-0h2-----2-0----0---0-2-----------------------three----------------|
E|------------------------3--------------------------------times-----------|
                                                               then.....
e|-------------------------------------------------------------------------|
B|--3-3--x3----3--3--------------------------------------------------------|
G|--2-2--x2----2--2--------------------------------------------------------|
D|--0-0--x0---0------------------------------------------------------------|
A|--0-0--x0------0---------------------------------------------------------|
E|-------------------------------------------------------------------------|
                 repeat once more


                          ==chorus 2==

e|-------------------------------------------------------------------------|
B|---3-------3------3------3-----------------------------------------------|
G|---2-------2------2------2-----------------------------------------------|
D|-----------------------0---0---------------------------------------------|
A|-------0h2----2-3----3---------------------------------------------------|
E|-3---3-------------------------------------------------------------------|
                 ^^play 4 times^^

e|-------------------------------------------------------------------------|
B|---3-------3------3------333----3--33------------------------------------|
G|---2-------2------2------222----2--22------------------------------------|
D|-----------------------0-000----0--00------------------------------------|
A|---------2----2-3----3---------------------------------------------------|
E|-3---3---0----0---------------3------------------------------------------|


bridge---play chorus 2 on the ''ahh-hhaa-aaaahh...oh darling darling. those are the best 
of my, those are the best days of my life.''

                              ==chorus 3==
e|-------------------------------------------------------------------------|
B|---3-------3------3------3-----------------------------------------------|
G|---2-------2------2------2-----------------------------------------------|
D|-----------------------0---0---------------------------------------------|
A|-------0h2----2-3----3---------------------------------------------------|
E|-3---3-------------------------------------------------------------------|
                 ^^play 4 times^^

e|-------------------------------------------------------------------------|
B|---3-------3------3------333----3--33------------------------------------|
G|---2-------2------2------222----2--22------------------------------------|
D|-----------------------0-000----0--00------------------------------------|
A|---------2----2-3----3---------------------------------------------------|
E|-3---3---0----0---------------3------------------------------------------|
        ^^play 3 times^^

 i know in this tab i dont play the high e, it's because my e chord sounds terrible, so 
why. but you can play it the high e, whatever rocks your boat. and tell me what you 
about this tab
Добавлено: 07.05.2012
Другие материалы по этой песне:
  • Аккорды и текст

Страница создана 07.05.2012
http://primanota.ru/matt-white/best-days-chords.htm
Привет, Гость.
Предлагаем пройти революционный курс по гитаре.
Подарок от PrimaNota.Ru, забирай!