PrimaNota.ru - самый крупный в мире бесплатный архив песенных текстов, аккордов, табулатур и нот


Matt Skiba - Soul To Keep - текст песни, таба, видео

Регистрация Запомнить меня
Войти через:  Facebook Google Twitter Vk Yandex Mail.ru

Matt Skiba - Soul To Keep - текст песни, таба, видео

Печатать
Просмотров: 123
Here is the acoustic, solo version to "Soul To Keep" as played by Matt Skiba.  In the
version, Matt plays power chords and is backed by a piano.  During spring/summer '07, he
on a solo tour(with chuch ragan) and played it this way exactly.  Extremely fun song to 
and it sounds great this way.  Enjoy it.  Feel free to send questions, comments,
requests(for acoustic songs) to nrlsky1@yahoo.com or message me on aim at q67.  P.S. I 
this was originally by 7 seconds.

Chords

      A/D         B           E      A*
e|----------------2-----------0------------|
B|-----3----------2-----------0------------|
G|-----2----------4-----------1------4-----|
D|-----0----------4-----------2------2-----|
A|-----0----------2-----------2------------|
E|----------------------------0------------|


Intro riff

e|-----------------|-----------------|-----------------|-----------------|
B|-----------------|-----------------|-----------------|-----------------|
G|-----4-------4---|-----4-------4---|-----4------4----|-----4------4----|
D|-----------------|-----------------|-2-2------2---2--|-2-2------2---2--|
A|-4-4-------4---4-|-2-2-------2---2-|-----------------|-----------------|
E|-----------------|-----------------|-----------------|-----------------|


Verse Riff 1

e|-----------------|-----------------|-----------------|-----------------|
B|-----------------|-----------------|-----------------|-----------------|
G|-----4-------4---|-----4-------4---|-----4------4----|-----4------4----|
D|-----------------|-----------------|-2-2------2---2--|-----------------|
A|-4-4-------4---4-|-2-2-------2---2-|-----------------|-0-0------0---0--|
E|-----------------|-----------------|-----------------|-----------------|

Verse Riff 2
e|-----------------|-----------------|
B|-----------------|-----------------|
G|-----4-------4---|-----4-------4---|
D|-----------------|-----------------|
A|-4-4-------4---4-|-2-2-------2---2-|
E|-----------------|-----------------|

Play Intro riff Twice

Verse Riff 1
I woke up from a dream I could've sworn I heard the phone
Verse Riff 2                         A/D
Fan's blowing in the corner like it does when she's at home
Verse Riff 1
Familiar desperate feeling always cold and dark inside
Verse Riff 2                             A/D
I'll probably sit here hoping soon that she'll be by my side.

B                  E
Yeah, I saw her smile that chased the blues away,
B
Her warmth will make it all okay
       A/D
'cause it's one to go and one to stay,
B
I guess it has to be that way
E                                     B
I found my kindred spirit, now she's with me as I sleep
A/D                                            B                Intro riff
and it's in her hands, up to her where she'll put my soul to keep.

Intro riff

Riff 1
Out there in the hard world trying to blend into the day
Riff 2                           A/D
A thousand different faces stare I try to look away well
Riff 1
I can feel her move within me and her voice is in my head
Riff 2                               A/D
and with that in mind I seem to find a way back home again

B                 E
Yeah, I saw her smile that chased the blues away,
B
Her warmth will make it all okay
        A/D
'cause it's one to go and one to stay,
B
I guess it has to be that way
E                          B
I found my kindred spirit, now she's with me as I sleep
A/D                                            B               Intro riff
and it's in her hands, up to her where she'll put my soul to keep.

Intro Riff
my soul to keep yeah

Intro Riff
soul to keep yeah

Intro Riff               A*
Soul to keep my soul to keep

In my opinion, that's a good place to end it.  Matt would kind of improvise the end and
strumming all the verse notes and singing oh.  I thought it was a little dragged out,
if you want to, strum the verse chords and start singing oh.  Finally, I'd like to thank 
lovely girlfriend for introducing me to alk3 and Matt Skiba.
Добавлено: 31.03.2012
Другие материалы по этой песне:
  • Аккорды и текст

Страница создана 31.03.2012
http://primanota.ru/matt-skiba/soul-to-keep-chords.htm
Привет, Гость.
Предлагаем пройти революционный курс по гитаре.
Подарок от PrimaNota.Ru, забирай!