PrimaNota.ru - самый крупный в мире бесплатный архив песенных текстов, аккордов, табулатур и нот


Matt Skiba And The Sekrets - Lonely And Kold - таба, видео

Регистрация Запомнить меня
Войти через:  Facebook Google Twitter Vk Yandex Mail.ru

Matt Skiba And The Sekrets - Lonely And Kold - таба, видео

Печатать
Просмотров: 29
Новый альбом группы 'Черный Кузнец' по культовому сериалу 'Сверхъестественное'!
Lonely and Kold
Matt Skiba and the Sekrets 
Kuts (2015)

Standard Tuning

Strumming is fairly easy to figure out if you listen to the song.

[Intro/Main Riff]
e|-----------7----------------|
B|----9-7-------------7-9-7---|
G|-9-------9---9----9-------9-| x4
D|----------------9-----------|
A|----------------------------|
E|----------------------------|

[Intro Rhythm]
e|-0-0-0-0-0-0-0-0-0-0-0-0-0-0-0-0-0-0-0-0-----------------------------------------|
B|-0-0-0-0-0-0-0-0-0-0-0-0-0-0-0-0-0-0-0-0-----------------------------------------|
G|-1-1-1-1-2-2-2-2-2-2-1-1-1-1-2-2-2-2-2-2---------2-2-2-2-2-2-4-4-4-4-4-4-4-4-4-4-| x2
D|-2-2-2-2-2-2-2-2-2-2-2-2-2-2-2-2-2-2-2-2-2-2-2-2-2-2-2-2-2-2-4-4-4-4-4-4-4-4-4-4-|
A|-2-2-2-2-2-2-2-2-2-2-2-2-2-2-2-2-2-2-2-2-0-0-0-0-0-0-0-0-0-0-2-2-2-2-2-2-2-2-2-2-|
E|-0-0-0-0-0-0-0-0-0-0-0-0-0-0-0-0-0-0-0-0-----------------------------------------|

[Verse 1] 
e|-0-0-0-0-0-0-0-0-0-0-0-0-0-0-0-0-0-0-0-0-----------------------------------------|
B|-0-0-0-0-0-0-0-0-0-0-0-0-0-0-0-0-0-0-0-0-----------------------------------------|
G|-1-1-1-1-2-2-2-2-2-2-1-1-1-1-2-2-2-2-2-2---------2-2-2-2-2-2-4-4-4-4-4-4-4-4-4-4-| x4
D|-2-2-2-2-2-2-2-2-2-2-2-2-2-2-2-2-2-2-2-2-2-2-2-2-2-2-2-2-2-2-4-4-4-4-4-4-4-4-4-4-|
A|-2-2-2-2-2-2-2-2-2-2-2-2-2-2-2-2-2-2-2-2-0-0-0-0-0-0-0-0-0-0-2-2-2-2-2-2-2-2-2-2-|
E|-0-0-0-0-0-0-0-0-0-0-0-0-0-0-0-0-0-0-0-0-----------------------------------------|

[Chorus]
e|---------------------------------|
B|---------------------------------|
G|-2-2-2-2-1-1-1-1-4-4-4-4-4-4-4-4-| x3
D|-2-2-2-2-2-2-2-2-4-4-4-4-4-4-4-4-|
A|-0-0-0-0-2-2-2-2-2-2-2-2-2-2-2-2-|
E|---------0-0-0-0-----------------|

e|---------------------------------|
B|---------------------------------|
G|-2-2-2-2-2-2-2-2-4-------2-------|
D|-2-2-2-2-2-2-2-2-4-------2-------| x1
A|-0-0-0-0-0-0-0-0-2-------0-------|
E|---------------------------------|

[Intro/Main Riff]
e|-----------7----------------|
B|----9-7-------------7-9-7---|
G|-9-------9---9----9-------9-| x4
D|----------------9-----------|
A|----------------------------|
E|----------------------------|

[Intro Rhythm]
e|-0-0-0-0-0-0-0-0-0-0-0-0-0-0-0-0-0-0-0-0-----------------------------------------|
B|-0-0-0-0-0-0-0-0-0-0-0-0-0-0-0-0-0-0-0-0-----------------------------------------|
G|-1-1-1-1-2-2-2-2-2-2-1-1-1-1-2-2-2-2-2-2---------2-2-2-2-2-2-4-4-4-4-4-4-4-4-4-4-| x2
D|-2-2-2-2-2-2-2-2-2-2-2-2-2-2-2-2-2-2-2-2-2-2-2-2-2-2-2-2-2-2-4-4-4-4-4-4-4-4-4-4-|
A|-2-2-2-2-2-2-2-2-2-2-2-2-2-2-2-2-2-2-2-2-0-0-0-0-0-0-0-0-0-0-2-2-2-2-2-2-2-2-2-2-|
E|-0-0-0-0-0-0-0-0-0-0-0-0-0-0-0-0-0-0-0-0-----------------------------------------|

[Verse 2]
e|-0-0-0-0-0-0-0-0-0-0-0-0-0-0-0-0-0-0-0-0-----------------------------------------|
B|-0-0-0-0-0-0-0-0-0-0-0-0-0-0-0-0-0-0-0-0-----------------------------------------|
G|-1-1-1-1-2-2-2-2-2-2-1-1-1-1-2-2-2-2-2-2---------2-2-2-2-2-2-4-4-4-4-4-4-4-4-4-4-| x2
D|-2-2-2-2-2-2-2-2-2-2-2-2-2-2-2-2-2-2-2-2-2-2-2-2-2-2-2-2-2-2-4-4-4-4-4-4-4-4-4-4-|
A|-2-2-2-2-2-2-2-2-2-2-2-2-2-2-2-2-2-2-2-2-0-0-0-0-0-0-0-0-0-0-2-2-2-2-2-2-2-2-2-2-|
E|-0-0-0-0-0-0-0-0-0-0-0-0-0-0-0-0-0-0-0-0-----------------------------------------|

e|-0-------------------------------------------------------------------------------|
B|-0-------------------------------------------------------------------------------|
G|-1-----------------------------------------------2-2-2-2-2-2-4-4-4-4-4-4-4-4-4-4-| x1
D|-2---------------------------------------2-2-2-2-2-2-2-2-2-2-4-4-4-4-4-4-4-4-4-4-|
A|-2---------------------------------------0-0-0-0-0-0-0-0-0-0-2-2-2-2-2-2-2-2-2-2-|
E|-0-------------------------------------------------------------------------------|

e|-0-0-0-0-0-0-0-0-0-0-0-0-0-0-0-0-0-0-0-0-----------------------------------------|
B|-0-0-0-0-0-0-0-0-0-0-0-0-0-0-0-0-0-0-0-0-----------------------------------------|
G|-1-1-1-1-2-2-2-2-2-2-1-1-1-1-2-2-2-2-2-2---------2-2-2-2-2-2-4-4-4-4-4-4-4-4-4-4-| x1
D|-2-2-2-2-2-2-2-2-2-2-2-2-2-2-2-2-2-2-2-2-2-2-2-2-2-2-2-2-2-2-4-4-4-4-4-4-4-4-4-4-|
A|-2-2-2-2-2-2-2-2-2-2-2-2-2-2-2-2-2-2-2-2-0-0-0-0-0-0-0-0-0-0-2-2-2-2-2-2-2-2-2-2-|
E|-0-0-0-0-0-0-0-0-0-0-0-0-0-0-0-0-0-0-0-0-----------------------------------------|

[Chorus]
e|---------------------------------|
B|---------------------------------|
G|-2-2-2-2-1-1-1-1-4-4-4-4-4-4-4-4-| x3
D|-2-2-2-2-2-2-2-2-4-4-4-4-4-4-4-4-|
A|-0-0-0-0-2-2-2-2-2-2-2-2-2-2-2-2-|
E|---------0-0-0-0-----------------|

e|---------------------------------|
B|---------------------------------|
G|-2-2-2-2-2-2-2-2-4-------4-------|
D|-2-2-2-2-2-2-2-2-4-------4-------| x1
A|-0-0-0-0-0-0-0-0-2-------3-------|
E|---------------------------------|

[Bridge Lead] (Clean)
e|-----0-------0-------0-------0---|
B|-5-------5-------5-------5-------|
G|---6---6---6---6---6---6---6---6-| x7 (Not 100% sure on this part)
D|---------------------------------|
A|---------------------------------|
E|---------------------------------|

[Bridge Rhythm] 
e|---------------------------------|
B|---------------------------------|
G|-6-------------------------------|
D|-6---------------6-------7-------| x3
A|-4---------------6-------7-------|
E|-----------------4-------5-------|

e|---------------------------------|
B|---------------------------------|
G|-6---------------2-2-2-2-4-4-4-4-|
D|-6---------------2-2-2-2-4-4-4-4-| x1
A|-4---------------0-0-0-0-2-2-2-2-|
E|---------------------------------|

[Chorus]
e|---------------------------------|
B|---------------------------------|
G|-2-2-2-2-1-1-1-1-4-4-4-4-4-4-4-4-| x3
D|-2-2-2-2-2-2-2-2-4-4-4-4-4-4-4-4-|
A|-0-0-0-0-2-2-2-2-2-2-2-2-2-2-2-2-|
E|---------0-0-0-0-----------------|

e|---------------------------------|
B|---------------------------------|
G|-2-2-2-2-2-2-2-2-4-------2-------|
D|-2-2-2-2-2-2-2-2-4-------2-------| x1
A|-0-0-0-0-0-0-0-0-2-------0-------|
E|---------------------------------|

[Ending]
e|-0-|
B|-0-|
G|-1-|
D|-2-|
A|-2-|
E|-0-|
Добавлено: 22.02.2018
Другие материалы по этой песне:
  • Аккорды и текст

Страница создана 22.02.2018
http://primanota.ru/matt-skiba-and-sekrets/lonely-and-kold-chords.htm
Привет, Гость.
Предлагаем пройти революционный курс по гитаре.
Подарок от PrimaNota.Ru, забирай!