PrimaNota.ru - самый крупный в мире бесплатный архив песенных текстов, аккордов, табулатур и нот


Matt Sheehy - Go Missing - таба, видео

Регистрация Запомнить меня
Войти через:  Facebook Google Twitter Vk Yandex Mail.ru

Matt Sheehy - Go Missing - таба, видео

Печатать
Просмотров: 58
Tabbed by: Kadima
E-mail:johu2000-us@yahoo.de
Matt Sheehy website: www.matt-sheehy.com

Tune e->d, Capo on 1st

The chord names are more or less correct, but especially the "Dadd9" is wrong, 
maybe there is no chord name for it anyway. Have fun!

Chords:
  |Em7  Em9  Cadd9  G  Dadd9  Gsus2  Asus4  D5  Aadd11 |
 d|-0----0-----0----0----0------0------0----0-----0----|
 B|-8----7-----3----3----3------3------3----3-----2----|
 G|-0----0-----0----0----0------0------2----2-----2----|
 D|-5----5-----2----0----4------0------2----0-----2----|
 A|-7----7-----3----2----5------0------0----0-----0----|
 E|-x----x-----x----3----x------x------x----x-----x----|

Intro:

  |1---2---3---4---|1---2---3---4---|1---2---3---4---|1---2---3---4---|

 d|------0-------0-|------0-------0-|------0-------0-|------0-------0-|
 B|--8-------8-----|-10------12-----|--5-------5-----|--3-------3-----|
 G|0---0---0---0---|0---0---0---0---|0---0---0---0---|0---0---0---0---|
 D|----------------|----------------|----------------|----------------|
 A|----------------|----------------|----------------|----------------|
 E|----------------|----------------|----------------|----------------|  x2

Verse:

 Em7       Em9
 Hurry operator
 Cadd9          G
 Send me out to sea
   Cadd9          G                 Dadd9
 I want to find a place where I can breathe

           Em7         Em9
 There's a hole in the ocean
      Cadd9            G
 That wants to swallow me
      Cadd9          G                  Dadd9
 That wants to put a stop where I would start again


Refrain:

 Cadd9        Gsus2
 I'm sorry to say
          G    Asus4 Cadd9*    (* B|-333300-|-333300-|)
 You're a mess like  me
       Cadd9    Gsus2
 We're blind to find
     G   Asus4  Cadd9*
 But now we'll  see
      Cadd9
 That I've
      D5
 been hiding out 


Intro


Verse: 
    Em7         Em9
 My brain is an empire
    Cadd9          G
 Of endless broken wires
      Cadd9         G                  Dadd9
 That       wants to take more than it gives

           Em7            Em9
 We rolled right past the point where
 Cadd9          G
 Nothing is the matter
     Cadd9           G           Dadd9
 Now       nothing's come in the way again 


Refrain


Bridge:

  |1---2---3---4---|1---2---3---4---|1---2---3---4---|1---2---3---4---|
   Cadd9            Aadd11           Cadd9   D5       Aadd11           

  |1---2---3---4---|1---2---3---4---|1---2---3---4---|1---2---3---4---|
   Cadd9   D5       Aadd11

  |Em9                              |Cadd9           |G               |
 d|----------------|----------------|----------------|----------------|
 B|------7-------7-|------7---------|------3---1---0-|----------------|
 G|--0-------0-----|--0-------9---0-|----------------|--0-------0-----|
 D|----------------|----------------|--2-------------|------0-------0-|
 A|----------------|----------------|3---3---3---3---|----------------|
 E|0---0---0---0---|0---0---0---0---|----------------|3---3---3---3---|

  |Cadd9           |G               |Dadd9                            |
 d|----------------|----------------|0---------------|----------------|
 B|------3---1---0-|----------------|3---------------|----------------|
 G|----------------|--0-------0-----|0---------------|----------------|
 D|--2-------------|------0-------0-|4---------------|----------------|
 A|3---3---3---3---|----------------|5---------------|----------------|
 E|----------------|3---3---3---3---|x---------------|----------------|

Verse:

           Em7         Em9
 There's a hole in the ocean
      Cadd9            G
 That wants to swallow me
      Cadd9          G                  Dadd9
 That wants to put a stop where I would start again 


Refrain (end on G)
Добавлено: 05.09.2013
Другие материалы по этой песне:
  • Аккорды и текст

Страница создана 05.09.2013
http://primanota.ru/matt-sheehy/go-missing-chords.htm
Привет, Гость.
Предлагаем пройти революционный курс по гитаре.
Подарок от PrimaNota.Ru, забирай!