PrimaNota.ru - самый крупный в мире бесплатный архив песенных текстов, аккордов, табулатур и нот


Matt Pryor - Still Theres A Light - таба, видео

Регистрация Запомнить меня
Войти через:  Facebook Google Twitter Vk Yandex Mail.ru

Matt Pryor - Still Theres A Light - таба, видео

Печатать
Просмотров: 89
-------------------------------------------------------------------------------
                    Still, There's A Light - Matt Pryor
-------------------------------------------------------------------------------
Tabbed by: Sean Hummer
Email: allstar21369@hotmail.com
Website: www.myspace.com/nomeansnocorey


This is a great song off of Matthew Pryor's (of The Get Up Kids) first solo
album, Confidence Man. I hope I did it justice.


*(Live he capos this song on the 2nd fret but leaves off the low E so that
if he plays it open it has the same effect as if he were in drop D)



Tuning: Capo on 2nd Fret



Intro/Verse-
e|--2-2-2-2---2-----2----------2-2-2-2---2-2-----------2-2-2-2-----2-2--------|
B|--3-3-3-3---3-----3----------3-3-3-3---3-3-----------3-3-3-3-----3-3--------|
G|--2-2-2-2---2-2---2----------0-0-0-0---0-0-----------2-2-2-2-----2-2--------|
D|0---0^0v0-0---2h4-----x2-----0-0^0v0---0^0-2h4-4---4---4^4v4---2-2^2-0h2p0--|
A|---------------------------2---------2--------------------------------------|
E|----------------------------------------------------------------------------|




Chorus-
e|--2-2-2-2-----2-2-2-2-----2-2-2-2--2-2-2-2-2-----2-2-2-2---|
B|--3-3-3-3-----3-3-3-3-----3-3-3-3--3-3-3-3-3-----3-3-3-3---|
G|--0-0-0-0-----0-0-0-0-----0-0-0-0--0-0-0-0-0-----2-2-2-2---|
D|--0-0-0-0-----0-0-0-0-----2-2-2-2--2-2-2-2-2---0-0-0^0v0---|
A|2-2-2^2v2---2-2-2^2v2---0-0-0^0v0--0-0-0^0v0---------------|
E|-----------------------------------------------------------|

e|--2-2-2-2-----2-2-2-2-----2-2-2-2----|-------------|
B|--3-3-3-3-----3-3-3-3-----3-3-3-3----|--3-3-3-3----|
G|--2-2-2-2-----0-0-0-0-----0-0-0-0----|--0-0-0-0----|
D|--x-x-x-x-----0-0-0-0-----2-2-2-2----|--0-0-0-0--x4|
A|4-4-4^4v4---2-2-2^2v2---0-0-0^0v0----|--x-x-x-x----|
E|-------------------------------------|3-3-3^3v3----|




Bridge-
e|------------------------------------------------------------------------|
B|--3-3-3-3-----3-3-3-3-----3-3-3-3----3--------3-3-3-----3-3-3-3---------|
G|--0-0-0-0-----0-0-0-0-----2-2-2-2----2--------0-0-0-----0-0-0-0---------|
D|--0-0-0-0-----0-0-0-0-----2-2-2-2--2-2--2-----0-0-0-----0-0-0-0---------|
A|2-2-2^2v2---2-2-2^2v2---0-0-0^0v0--0-0--0-----x-x-x-----x-x-x-x---------|
E|------------------------------------------2-3-3^3v3---3-3-3^3v3---------|

e|--2-2-2-2-----2-2-2-2---------------------------------------------------|
B|--3-3-3-3-----3-3-3-3-----3-3-3-3-----3-3-3-3-----3-3-3-3-----3-3-3-3---|
G|--2-2-2-2-----2-2-2-2-----0-0-0-0-----0-0-0-0-----0-0-0-0-----2-2-2-2---|
D|0-0-0^0v0---0-0-0^0v0-----0-0-0-0-----0-0-0-0-----0-0-0-0-----2-2-2-2---|
A|--------------------------x-x-x-x-----x-x-x-x---2-2-2^2v2---0-0-0^0v0---|
E|------------------------3-3-3^3v3---3-3-3^3v3---------------------------|

e|--------------------------2-2-2-2-----2-2-2-2-------------|
B|--3-3-3-3-----3-3-3-3-----3-3-3-3-----3-3-3-3---3-3--3~---|
G|--0-0-0-0-----0-0-0-0-----2-2-2-2-----2-2-2-2---0-0--0~---|
D|--0-0-0-0-----0-0-0-0---0-0-0^0v0---0-0-0^0v0---0-0--0~---|
A|--x-x-x-x-----x-x-x-x---------------------------x-x--x----|
E|3-3-3^3v3---3-3-3^3v3---------------------------3^3--3~---|

e|----------------------0~---0-0~----------------2-2-2-2----|
B|--------------3-3---3-3~---3-3~---3-3--3-3-----3-3-3-3----|
G|--------------0-0---2-2~---2-2~---2-2--2-2-----2-2-2-2----|
D|0--0--0--0----0-0---0-0~---2-2~---2-2--2-2---0-0-0^0v0----|
A|x--x--x--x----x-x---2-2~---0-0~---0-0--0^0----------------|
E|3x-3x-3x-3x---3^3-----------------------------------------|

e|--2-2-2-2-----2-2-2-2-----2-2-2-2----|-------------|
B|--3-3-3-3-----3-3-3-3-----3-3-3-3----|--3-3-3-3----|
G|--2-2-2-2-----0-0-0-0-----0-0-0-0----|--0-0-0-0----|
D|--x-x-x-x-----0-0-0-0-----2-2-2-2----|--0-0-0-0--x4|
A|4-4-4^4v4---2-2-2^2v2---0-0-0^0v0----|--x-x-x-x----|
E|-------------------------------------|3-3-3^3v3----|




Outro-
e|--2-2-2-2---2-----2----------2-2-2-2---2-2-----------2-2-2-2-----2-2--------|
B|--3-3-3-3---3-----3----------3-3-3-3---3-3-----------3-3-3-3-----3-3--------|
G|--2-2-2-2---2-2---2----------0-0-0-0---0-0-----------2-2-2-2-----2-2--------|
D|0---0^0v0-0---2h4-----x2-----0-0^0v0---0^0-2h4-4---4---4^4v4---2-2^2-0h2p0--|
A|---------------------------2---------2--------------------------------------|
E|----------------------------------------------------------------------------|




*I'll update the rest soon*



| /  slide up
| \  slide down
| h  hammer-on
| p  pull-off
| ~  vibrato
| +  harmonic
| x  Mute note
Добавлено: 13.04.2012
Другие материалы по этой песне:
  • Аккорды и текст

Страница создана 13.04.2012
http://primanota.ru/matt-pryor/still-theres-a-light-chords.htm
Привет, Гость.
Предлагаем пройти революционный курс по гитаре.
Подарок от PrimaNota.Ru, забирай!