PrimaNota.ru - самый крупный в мире бесплатный архив песенных текстов, аккордов, табулатур и нот


Matt Pond PA - Winterlong - текст песни, таба, видео

Регистрация Запомнить меня
Войти через:  Facebook Google Twitter Vk Yandex Mail.ru

Matt Pond PA - Winterlong - текст песни, таба, видео

Печатать
Просмотров: 224
Уроки эстрадного вокала в Санкт-Петербурге
Авторы музыки: Neil Young
Авторы текста: Neil Young
Title:  'Winterlong'
Artist: matt pond PA (mattpondpa.com)
Album:  Winter Songs (EP)
Tabbed by Jorge Díaz (j_diaz_s@yahoo.com)


 [ Cover of "Winterlong", by Neil Young ]


       E A D G B E

G    --3-2-0-0-3-3--|
Em   --0-2-2-0-0-0--|
C    --x-3-2-0-1-0--|
D    --x-x-0-2-3-2--|
B7   --x-2-4-2-4-2--|
E    --0-2-2-1-0-0--|
A    --x-0-2-2-2-0--|
F#m  --2-4-4-2-2-2--|



 Intro:

		        G   Em  C   D   C   G
E ---------------------------------------------|
B ---------------------------------------------|
G ---------------------------------------------|
D ---------------------------------(0)---------|
A ---0----2------3-3^5---------(3)-----(3)-----|
E -3---3----3--3-------(3)-(0)-------------(3)-|

		        G
E -------------------------|
B -------------------------|
G -------------------------|
D -------------------------|
A ---0----2------3-3^5-----| (*)
E -3---3----3--3-------(3)-|


 Verse 1: (0:21)

G			 Em
I waited for you, Winterlong
			  C 
You seem to be where I belong
	     D    C  G  *
It's all illusion anyway 


 Verse 2: (0:37)

G				 Em
If things should ever turn out wrong
			     C 
And all the love we have is gone 
	    D		  C G  *
It won't be easy on that day 


 Bridge: (0:54)

C	     B7
Waiting to follow
	      Em		C 
Through the dreamlight of your way
	  B7	       E 
Is not so easy for me now 


 Chorus: (1:11)

A
Half the time has passed away 
F#m		      D
Things we thought of yesterday 
D	      E		   A  G  *
Come back now, come back now 


 (1:26)

   G                            Em                    C
E -------------------------------------------------------|
B --12-13-13^15-13-12--10h12----12-13-15-13-12--10h12-13-|
G ---------------------------12--------------------------|
D -------------------------------------------------------|
A -------------------------------------------------------|
E -------------------------------------------------------|

		D	     C	   G	 *
E ----------12-10--------------------------|
B -------13--------10-10-12--13-13-12-12---|
G -11h12-----------------------------------|
D -----------------------------------------|
A -----------------------------------------|
E -----------------------------------------|

            G			    Em
E ------------3-2--2-2----------------3-2--2-2-----------------|
B -0h1-0---------------3-1-0-3-1-0-------------3-1-0-3-1-0-----|
G -------2-0-----------------------2-(0)-------------------2-0-|
D -------------------------------------------------------------|
A -------------------------------------------------------------|
E -------------------------------------------------------------|

   C	    D		C  G	*
E --------0----3-3-2------------|
B ------1---3--------3--1b-0-0--|
G --0-0-------------------------|
D ------------------------------|
A ------------------------------|
E ------------------------------|


 Bridge: (2:01)

C	     B7
Waiting to follow
	      Em		C 
Through the dreamlight of your way
	  B7	       E 
Is not so easy for me now 


 Chorus: (2:18)

A
Half the time has passed away 
F#m		      D
Things we thought of yesterday 
D	      E		   A  G  *
Come back now, come back now 


 Outro: (2:33)  [ Repeat 4 times ]

G			C
I waited for you Winterlong
	     D		G 
(You seem to be where I belong) 


 [ Ends with G ]

Добавлено: 15.05.2012
Другие материалы по этой песне:
  • Аккорды и текст

Страница создана 15.05.2012
http://primanota.ru/matt-pond-pa/winterlong-chords.htm
Привет, Гость.
Предлагаем пройти революционный курс по гитаре.
Подарок от PrimaNota.Ru, забирай!