PrimaNota.ru - самый крупный в мире бесплатный архив песенных текстов, аккордов, табулатур и нот


Matt Pond PA - So Much Trouble - текст песни, таба, видео

Регистрация Запомнить меня
Войти через:  Facebook Google Twitter Vk Yandex Mail.ru

Matt Pond PA - So Much Trouble - текст песни, таба, видео

Печатать
Просмотров: 173
Title:  'So Much Trouble'
Artist: matt pond PA (mattpondpa.com)
Album:  Several Arrows Later
Tabbed by Jorge Díaz (j_diaz_s@yahoo.com)


      E A D G B E

F   --1-3-3-2-1-1--| or --x-3-3-0-1-0--|
C   --x-3-4-4-4-3--| or --x-3-2-0-1-0--|
G   --3-5-5-4-3-3--| or --3-2-0-0-1-0--|
Am7 --5-7-5-5-5-5--| or --x-0-2-0-1-0--|
E   --0-x-x-x-x-x--|


- In the album version of this song, bass plays chords shown in verses but you can actually 

play it with your guitar. 
- Playing the E (6th) string between Am7 and F is optional.


 [ Capo 1st Fret ]


 Intro:

E -3------3-------|
B ----5-------5---| (x4)
G --5---5---5---5-|
D ----------------|
A ----------------|
E ----------------|

  F	       C	    G		Am7	E   F
E -3------3--------------------3------3-----------------|
B ----5------5------3--5--3-------5-----5--5-5-5-5-5----| (x2)
G --5---5--5---4--4--4--4--5-5--5---5-----5-5-5-4-4-4h5-|
D ------------------------------------------------------|
A ------------------------------------------------------|
E ------------------------------------------------------|

  F
E -3------3-------|
B ----5-------5---| (x2)
G --5---5---5---5-|
D ----------------|
A ----------------|
E ----------------|



 Verse 1: (0:21)

F             C
 did you go to montreal
    G		    Am7		E F
or hide behind the package store
F			  C
 you're hanging out with your old friends
   G			   Am7	    E F
with them they knew you'd see the end



 Verse 2: (0:33)

	  F	    C
E --0--0--0--0--0--0--0--0--|
B --1--1--1--1--1--1--1--1--|
G --------------------------|
D --------------------------|
A --------------------------|
E --------------------------|
you're in so much trouble

       G	    Am7	 E F
E --0--0--0--0--0--0--0--0--0--0--0--|
B --0--0--0--0--0--0--1--1--0--0--1--|
G -----------------------------------|
D -----------------------------------|
A -----------------------------------|
E -----------------------------------|
can't hide in your covers

 F			    C
E --0--0--0--0--0--0--0--0--0--0--0--|
B --1--1--1--1--1--1--1--1--1--1--1--|
G -----------------------------------|
D -----------------------------------|
A -----------------------------------|
E -----------------------------------|
it's forgetting that would beat it all

 G	     Am7		E F
E -------------------------------------|
B --0--0--0--0--0--0--1--1--3--3--1--1-|
G -------------------------------------|
D -------------------------------------|
A -------------------------------------|
E -------------------------------------|
easier when they don't ever call



 Solo: (0:49)

    F			 C		    G
E -----------12-----------------15------------------12--------|
B ---13h12h13-13-12h13--13h12h13-13-12h13---13h12h13-13-12h13-|
G -(12)---------------(12)----------------(12)----------------|
D ------------------------------------------------------------|
A ------------------------------------------------------------|
E ------------------------------------------------------------|

   Am7		E	F		    C
E -----------15------------------12-----------------15--------|
B ---13h12h13-13-12h13---13h12h13-13-12h13--13h12h13-13-12h13-|
G -(12)----------------(12)---------------(12)----------------|
D ------------------------------------------------------------|
A ------------------------------------------------------------|
E ------------------------------------------------------------|

   G			Am7	    E	    F		F
E -----------12-----------------15-----------------12------12------12---12-|
B ---13h12h13-13-12h13--13h12h13-13-12h13--13h12-13--13--13--13--13--13-13-|
G -(12)---------------(12)-----------------------------12------12-------12-|
D -------------------------------------------------------------------------|
A -------------------------------------------------------------------------|
E -------------------------------------------------------------------------|



 Verse 3: (1:05)  [ Guitar 2 plays this during Verse 3: ]


  E -(0)----0-------0--|		   
  B ------1---1---1----|
  G ----0-------0------|
  D -------------------|
  A -------------------|
  E -------------------|

F                         C
i don't think i want to think about it
 G		 Am7	E F
how the fall is coming down
F                              C
the light is leaving and it's hard to breathe
 G           Am7      E F
buried in a pile of leaves



 Verse 4: (1:17)  [ Guitar 2 plays this during Verse 3: ]


  E -(3)----3--------3-----|		   
  B ------1--(1)---1--(1)--|
  G ----0--------0---------|
  D -----------------------|
  A -----------------------|
  E -----------------------|

F                    C
we don't want to make mistakes
G                    Am7     E F
we don't want to be the same
F                    C
i hand the finger to my fate
 G                       Am7     E      F
he doesn't know and he cannot see that far


 (1.32)

   G G G   F F F
E -------------------------------------|		   
B ---------------13-----13-----13------|
G ----------12-12--12-12--12-12--12-12-|
D -------------------------------------|
A -------------------------------------|
E -------------------------------------|

   G G G   F F F
E -----------------15-----------------12--------|
B ---------12h13h12-13-12h13--13h12h13-13-12h13-|
G -------(12)---------------(12)----------------|
D ----------------------------------------------|
A ----------------------------------------------|
E ----------------------------------------------|



 [ Repeat Solo ] (1:45)


 Verse 5: (2:01)

F                         C
i don't think i want to think about it

 G		 Am7	E F
E -------------------------|
B --1---0---1---0---1------|
G -------------------------|
D -------------------------|
A -------------------------|
E -------------------------|
how the fall is coming down

F                              C
the light is leaving and it's hard to breathe

 G           Am7      E F
E -------------------------|
B --1---0---1---3---5------|
G -------------------------|
D -------------------------|
A -------------------------|
E -------------------------|
buried in a pile of leaves



 Verse 6: (2:13)

F                    C
we don't want to make mistakes
G                    Am7     E F
we don't want to be the same
F                    C
i hand the finger to my fate
 G                       Am7     E      F
he doesn't know and he cannot see that far



 (2:28)  [ Guitar 2 plays this until 2:44 ]


  E -(3)----3--------3------(0)----0-------0--|	   
  B ------1--(1)---1--(1)--------1---1---1----|
  G ----0--------0-------------0-------0------|
  D ------------------------------------------|
  A ------------------------------------------|
  E ------------------------------------------|

nights get so long and cold
fewer places we can go
you're in so much trouble
can't hide in your covers


 (2:44)

   G G G   F F F
E -------------------------------------|		   
B ---------------13-----13-----13------|
G ----------12-12--12-12--12-12--12-12-|
D -------------------------------------|
A -------------------------------------|
E -------------------------------------|

   G G G   c c c
E --------------12--------12--------12------|
B ------------13--(13)--13--(13)--13---13---|
G ----------12--------12--------12-------12-|
D ------------------------------------------|
A ------------------------------------------|
E ------------------------------------------|

   G G G   F F F
E -------------------------------------|		   
B ---------------13-----13-----13------|
G ----------12-12--12-12--12-12--12-12-|
D -------------------------------------|
A -------------------------------------|
E -------------------------------------|

   G G G   C C C
E -----------------------------|		   
B ---------13-13h12-12-10-10h8-|
G -----------------------------|
D -----------------------------|
A -----------------------------|
E -----------------------------|



 Outro: (3:09)  

[ Guitar 2 plays this until 3:21 ]

  E -3---0---3---0----|		   
  B ---1---1---1---1--|
  G ------------------|
  D ------------------|
  A ------------------|
  E ------------------|

F			   C
 i don't think i want to think about it
G			   Am7	 E   F
 i don't think i want to think about it
F			   C
 i don't think i want to think about it
G			   Am7	 E   F
 i don't think i want to think about it


    (3:21)

  F		     C		  G		Am7  E F  
E -12--12h10--10-8--7h8--------12--12h10--10-8--7h8-----|
B ------------------------------------------------------| (X4)
G ------------------------------------------------------|
D ------------------------------------------------------|
A ------------------------------------------------------|
E ------------------------------------------------------|
 you're in so much trouble, can't hide in your covers

  F                  F 		      
E -12--12h10--10h8--7-7---|
B ------------------------|
G ------------------------|
D ------------------------|
A ------------------------|
E ------------------------|
 
Добавлено: 30.03.2012
Другие материалы по этой песне:
  • Аккорды и текст

Страница создана 30.03.2012
http://primanota.ru/matt-pond-pa/so-much-trouble-chords.htm
Привет, Гость.
Предлагаем пройти революционный курс по гитаре.
Подарок от PrimaNota.Ru, забирай!