PrimaNota.ru - самый крупный в мире бесплатный архив песенных текстов, аккордов, табулатур и нот


Matt Pond PA - Several Arrows Later - таба, видео

Регистрация Запомнить меня
Войти через:  Facebook Google Twitter Vk Yandex Mail.ru

Matt Pond PA - Several Arrows Later - таба, видео

Печатать
Просмотров: 147
Title:  'Several Arrows Later'
Artist: matt pond PA (mattpondpa.com)
Album:  Several Arrows Later
Tabbed by Jorge Díaz (j_diaz_s@yahoo.com)


         E A D G B E

D#m   --X-6-8-8-7-6--|
G#m   --x-x-6-8-9-7--|
C#    --x-4-6-6-6-4--|
F#    --x-9-11-x-x-x-|
F#/F  --x-8-11-x-x-x-|
B5    --7-9-9-x-x-x--|
B5/A# --6-9-9-x-x-x--|
G#5   --4-6-6-x-x-x--|
F#5   --2-4-4-x-x-x--|
A#5   --5-7-7-x-x-x--|



 Intro:

                D#m D#m D#m D#m
E ------------------------------|
B -11-9-7-----------------------|
G --------8---------------------|
D ----------8-6-----------------|
A --------------6-6-6-6-6-6-6-6-|
E ------------------------------|


 Verse 1: (0:13)

D#m       G#m                 C#             F#     F#/F
 orange streetlight picks up when the summer sun goes
D#m           G#m              C#   F# F
 on tops of buildings red remains
D#m        G#m             C#                 F#          F#/F     D#m
 it's the differences in light that gets our minds, that gets our minds
            G#m           C#    (F# F)
give waking up for never fading


 [ Riff 1 during last F# F#/F ]

 E --------|
 B --------|
 G --------|
 D --------| 
 A -4--8-9-|
 E --------|



 Bridge: (0:37)

B5   B/A#     G#5    F#5 A#5 B5
 and i walked up to you
B5 B/A#             G#5        F#5    A#5 B5
 holding on to the rail i was not fine
B5               F#5  A#5 B5
 my intentions proved
                      G#5
i thought i would go further
                B5
several arrows later will be fine


  [ Riff 2 ]

    B5     B5
 E -------------|
 B -4--7--9--11-| (x2) 
 G -------------|
 D -------------|
 A -------------|
 E -------------|



 Chorus: (1:07)

D#m     G#m
  i am listening
C#            F#     F#/F     D#m
  i'm hearing every single word
        G#m                  C#          F# F#/F
i see breath and sighs and changing minds
D#m       G#m            C#                F#    F#/F        D#m
  i told myself not to remind me of the things i could've been
        G#m             C#      (F# F#/F)
i told myself not to remind me



 [ Riff 1 ]


 Bridge: (1:32)

B5   B/A#     G#5    F#5 A#5 B5
 and i walked up to you
B5 B/A#             G#5        F#5    A#5 B5
 holding on to the rail i was not fine
B5               F#5  A#5 B5
 my intentions proved
                      G#5
i thought i would go further
                B5
several arrows later will be fine


 [ Riff 2 ]



 (2:00)

E --------------------------|
B -4-4-4-4-4-4-3-3-3-3-3-3--|
G --6-6-6-6-6-6-4-4-4-4-4-4-|
D --------------------------| (x2)
A --------------------------|
E --------------------------|

   
E --------------------------------|
B -44-444-444-444--33-333-333-333-|
G -66-666-666-666--44-444-444-444-|
D --------------------------------|
A --------------------------------|
E --------------------------------|

E --------------------------------|
B -44-444-444-444--88-888-888-888-|
G -66-666-666-666--88-888-888-888-|
D --------------------------------|
A --------------------------------|
E --------------------------------|



 (2:25)

E ---------------------------------------------|
B ---------------------------------------------|
G ---------------------------------------------|
D -------------------6-6--6-6-6----------------|
A -6-6--6-6-6-----------------------4-4--4-4-4-|
E ---------------------------------------------|
     you should not want to sound they like do

E ---------------------------------------------|
B ---------------------------------------------|
G ---------------------------------------------|
D ---------------------------------------------|
A ----------9-9-----8-8--------6-6-------------|
E ---------------------------------------------|
you should want to sound like you

                                                    D#m
E -----------------------------------------------------|
B -----------------------------------------------------|
G -----------------------------------------------------|
D -------------------6-6--6-6-6------------------------|
A --6-6-6--------------------------4-4--4-4-4---9-8-6--|
E -----------------------------------------------------|
    you should not want to sound they like do



 Chorus: (2:36)

D#m     G#m
  i am listening
C#            F#     F#/F     D#m
  i'm hearing every single word
        G#m                  C#          F# F#/F
i see breath and sighs and changing minds
D#m       G#m            C#                F#    F#/F        D#m
  i told myself not to remind me of the things i could've been
        G#m             C#      (F# F#/F)
i told myself not to remind me
 


 Outro: (2:59)
 
  F# F D#m  G#m  C#   F# F  D#m  G#m  C#   F# F    
E ------------------------------------------------|
B -7-6-4---------7-6--7-6-4-----------7-6--11-9-7-| (x2)
G ------------------------------------------------|
D ------------------------------------------------|
A ------------------------------------------------|
E ------------------------------------------------|


E ----------|
B ----------|
G ----------|
D -8-6------| 
A -----9-6--| (Repeat this twice while music fades)
E ----------|

Добавлено: 22.06.2012
Другие материалы по этой песне:
  • Аккорды и текст

Страница создана 22.06.2012
http://primanota.ru/matt-pond-pa/several-arrows-later-chords.htm
Привет, Гость.
Предлагаем пройти революционный курс по гитаре.
Подарок от PrimaNota.Ru, забирай!