PrimaNota.ru - самый крупный в мире бесплатный архив песенных текстов, аккордов, табулатур и нот


Matt Pond PA - Measure 3 - таба, видео

Регистрация Запомнить меня
Войти через:  Facebook Google Twitter Vk Yandex Mail.ru

Matt Pond PA - Measure 3 - таба, видео

Печатать
Просмотров: 169
Уроки эстрадного вокала в Санкт-Петербурге
Title:  'Measure 3'
Artist: matt pond PA (mattpondpa.com)
Album:  The Green Fury
Tabbed by Jorge Díaz (j_diaz_s@yahoo.com)


            E A D G B E

D         --x-x-0-2-3-2--|
Dsus4     --x-x-0-2-3-0--|
Dsus4/F#  --x-x-4-2-3-0--|
A         --x-0-2-2-2-0--|
G         --3-2-0-0-3-3--|


 Intro: (Cello)

E --------5------9-----5-------|
B -7-3-5-3--3-5-3-3-5-3-3-5-3--| (x2) (#)
G -----------------------------|
D -----------------------------|
A -----------------------------|
E -----------------------------|


E --------5----5^9---5-----|
B -5^7-3-5--3-5---3-5-3-5--| (x2)
G -------------------------|
D -------------------------|
A -------------------------|
E -------------------------|

(Band Kicks in, repeat (#) of the intro during the following: ) 


 Guitar 1:

E -0--0----0---0-00-00--|
B -3--32-2-3-3-0-22-33--| (x2) (*)
G -2--22---2---2-22-22--|     
D -0--00---0---0-00-00--|
A ----------------------|
E ----------------------|


 Main Riff (Guitar 2):

E -----------------------|
B -3-3^5^2-33-3-0-22-33--| (x2)
G -----------------------|
D -----------------------|
A -----------------------|
E -----------------------|



 Verse 1: (0:43)

(*)
will we both be happy to stand alone
(*)
i can't see forever, where will I go


Bridge: (0:56)

Dsus4	  D	    Dsus4/F#	Dsus4
i'll stop thinking - i will be ordinary
Dsus4	     D
your laughter kills me
Dsus4/F#			   Dsus4
you can't hurt me that won't matter at all


 [ Repeat (#) ] (1:13)


 Verse 2: (1:28)

we've stayed together despite our rows
and we're holding back so we won't explode


i'll stop thinking - i will be ordinary
your laughter kills me
you can't hurt me that won't matter at all


 Chorus: (1:58)

E ----------|
B -3-2-0-3--| (**)
G ----------|
D ----------|
A ----------|
E ----------|

E --------------------|
B -0-2-3-5-7-8-2---3--| (***)
G --------------------|
D --------------------|
A --------------------|
E --------------------|


Dsus4		  (**) Dsus4	      (***)		
it's in the stadiums and in the biggest rooms we want too belong
Dsus4	    (**) Dsus4		(***)
i am mistaken it's in the biggest rooms it all goes wrong


 [ Repeat (#) ] (2:20)


 Verse 3: (2:34)

so we know more now then we'll ever know
and we're holding back so we won't explode


i'll stop thinking - i will be ordinary
your laughter kills me
you can't hurt me that won't matter at all


it's in the stadiums and in the bigger rooms we want to belong
i am mistaken it's in the biggest rooms it all goes wrong 



(Ends with Dsus4)
Добавлено: 17.05.2012
Другие материалы по этой песне:
  • Аккорды и текст

Страница создана 05.03.2012
http://primanota.ru/matt-pond-pa/measure-3-chords.htm
Привет, Гость.
Предлагаем пройти революционный курс по гитаре.
Подарок от PrimaNota.Ru, забирай!