PrimaNota.ru - самый крупный в мире бесплатный архив песенных текстов, аккордов, табулатур и нот


Matt Pond PA - Lily Two - текст песни, таба, видео

Регистрация Запомнить меня
Войти через:  Facebook Google Twitter Vk Yandex Mail.ru

Matt Pond PA - Lily Two - текст песни, таба, видео

Печатать
Просмотров: 383
Уроки эстрадного вокала в Санкт-Петербурге
-------------------------------------------------------------------------------
                            Lily Two - Matt Pond PA
-------------------------------------------------------------------------------

Tabbed By: Jake K.

~~~~~~
TUNING: Capo - Fret 4
~~~~~~

Great song. This was a pain to tab out. 
Still not 100% sure, but it sounds 
pretty dang close.


Intro
e|-------00000-00000-XXXXXXXXXXXXXXXXXXXX-0000000000000000000000000000000000000000000000-|
B|-00000-33333-22222-00000000000000000000-0000000000000000000000000000000000000000000000-|
G|-44444-00000-00000-00000000000000000000-3334443334443334443334443334443334443334443334-|
D|-XXXXX-22222-22222-XXXXXXXXXXXXXXXXXXXX-0000000000000000000000000000000000000000000000-|
A|-22222-00000-00000-22222777776666666666-2222222222222222222222222222222222222222222222-|
E|-33333-------------00000000000000000000-3333333333333333333333333333333333333333333333-|
   ^----Play 2X----^ ^-----Play 2X------^                                            ~Ring 

Verse - Guitar 1
e|-000000000000000XXXXX-000000000000000XXXXXXXXXX----------------------------------------|
B|-00000000000000033333-0000000000000003333333333----------------------------------------|
G|-00000000000000000000-0000000000000000000000000----------------------------------------|
D|-22222XXXXXXXXXX00000-22222XXXXXXXXXX0000000000----------------------------------------|
A|------4444433333XXXXX------4444433333XXXXXXXXXX----------------------------------------|
E|----------------33333----------------3333322222----------------------------------------|
                                                  
Verse - Guitar 1 - Continued
e|-000000000000000XXXXXXXXXX-00000000000000000000----------------------------------------|
B|-0000000000000003333333333-22222000002222200000----------------------------------------|
G|-0000000000000000000000000-00000000000000000000----------------------------------------|
D|-22222XXXXXXXXXX0000000000-22222222222222222222----------------------------------------|
A|------4444433333XXXXXXXXXX-00000222220000022222----------------------------------------|
E|----------------3333322222------00000-----00000----------------------------------------|
   ^--------------------Play 2X-----------------^

Verse - Guitar 2
e|----------------------------------------------------------|----------------------------|
B|--0----0----0----------3----0----0----0----------3----3---|--2---0--2--0---------------|
G|---0----0----0----------0----0----0----0----------0----0--|---0---0--0--0--------------|
D|----------------4slide5--5----------------4slide5--5-4--4-|-2------2-----2-------------|
A|-7--7-4--4-3--3------------7--7-4--4-3--3-----------------|----0------0----------------|
E|----------------------------------------------------------|----------------------------|
   ^-------------------------Play 1X----------------------^
                             ^-------------------Play 2X-------------------^

Chorus
e|-0000000000-0000000000-0000000000-00000000000000000000---------------------------------|
B|-3333333333-2222222222-3333333333-22222000002222200000---------------------------------|
G|-0000000000-0000000000-0000000000-00000000000000000000---------------------------------|
D|-2222200000-2222222222-2222200000-22222222222222222222---------------------------------|
A|-3333322222-0000000000-3333322222-00000222220000022222---------------------------------|
E|-XXXXX33333------------XXXXX33333------00000-----00000---------------------------------|
   ^-------------------Play 2X-------------------------^

Bridge
e|-------00000-00000---XXXXXXXXXXXXXXXXXXXX----------------------------------------------|
B|-00000-33333-22222---00000000000000000000----------------------------------------------|
G|-44444-00000-00000---00000000000000000000----------------------------------------------|
D|-XXXXX-22222-22222---XXXXXXXXXXXXXXXXXXXX----------------------------------------------|
A|-22222-00000-00000---22222777776666666666----------------------------------------------|
E|-33333---------------00000000000000000000----------------------------------------------|
   ^-----Play 2X---^   ^------Play 2X-----^                                               

Chorus
e|-0000000000-0000000000-0000000000-00000000000000000000---------------------------------|
B|-3333333333-2222222222-3333333333-22222000002222200000---------------------------------|
G|-0000000000-0000000000-0000000000-00000000000000000000---------------------------------|
D|-2222200000-2222222222-2222200000-22222222222222222222---------------------------------|
A|-3333322222-0000000000-3333322222-00000222220000022222---------------------------------|
E|-XXXXX33333------------XXXXX33333------00000-----00000---------------------------------|
   
Solo/Breakdown - Guitar 1
e|---------------------------------------------------------------------------------------|
B|---0-----0-----0------------3------0-----0-----0------------3----3---------------------|
G|--0-0-0-0-0-0-0-0-0--------0-0-0--0-0-0-0-0-0-0-0-0--------0--0-0-0-0------------------|
D|--------------------4slide5---5---------------------4slide5--5-4---4-2-----------------|
A|-7---7-4---4-3---3---------------7---7-4---4-3---3-------------------------------------|
E|---------------------------------------------------------------------------------------|

Solo/Breakdown - Guitar 2
e|-000000000000000XXXXX-000000000000000XXXXXXXXXX-000000000000000000000000---------------|
B|-00000000000000033333-0000000000000003333333333-000000000000000000000000---------------|
G|-00000000000000000000-0000000000000000000000000-000000000000000000000000---------------|
D|-22222XXXXXXXXXX00000-22222XXXXXXXXXX0000000000-XXXXXXXXXXXXXXXXXXXXXXXX---------------|
A|------4444433333XXXXX------4444433333XXXXXXXXXX-777776666665555554444444---------------|
E|----------------33333----------------3333322222-000000000000000000000000---------------|
                                                  ^--------Play 6X-------^
Chorus
e|-0000000000-0000000000-0000000000-00000000000000000000---------------------------------|
B|-3333333333-2222222222-3333333333-22222000002222200000---------------------------------|
G|-0000000000-0000000000-0000000000-00000000000000000000---------------------------------|
D|-2222200000-2222222222-2222200000-22222222222222222222---------------------------------|
A|-3333322222-0000000000-3333322222-00000222220000022222---------------------------------|
E|-XXXXX33333------------XXXXX33333------00000-----00000---------------------------------|

Final Verse - Guitar 1
e|--000000000000000XXXXXXXXXX-00000000000000000000-----0000000000-----0------------------|
B|--0000000000000003333333333-22222000002222200000-----2220000222-----0------------------|
G|--0000000000000000000000000-00000000000000000000-----0000000000-----0------------------|
D|--22222XXXXXXXXXX0000000000-22222222222222222222-----2222222222-----2------------------|
A|-------4444433333XXXXXXXXXX-00000222220000022222-----0002222000-----2------------------|
E|-----------------3333322222------00000-----00000--------0000--------0------------------|
    ^--------------------Play 2X-----------------^     ^'Til end^  ^End on^

Final Verse - Guitar 2
e|-------------------------------|-----------------------------|
B|-0----0----0----------3----3---|--2---0--2--0----------------|
G|--0----0----0----------0----0--|---0---0--0--0---------------|
D|---------------4slide5--5-4--4-|-2------2-----2--------------|
A|7--7-4--4-3--3-----------------|----0------0-----------------|
E|-------------------------------|-----------------------------|
                                   ^'Til end....^  
Добавлено: 09.07.2012
Другие материалы по этой песне:
  • Аккорды и текст

Страница создана 02.04.2012
http://primanota.ru/matt-pond-pa/lily-two-chords.htm
Привет, Гость.
Предлагаем пройти революционный курс по гитаре.
Подарок от PrimaNota.Ru, забирай!