PrimaNota.ru - самый крупный в мире бесплатный архив песенных текстов, аккордов, табулатур и нот


Matt Pond PA - In The Aeroplane Over The Sea - аккорды и текст, видео

Регистрация Запомнить меня
Войти через:  Facebook Google Twitter Vk Yandex Mail.ru

Matt Pond PA - In The Aeroplane Over The Sea - аккорды и текст, видео

Печатать
Просмотров: 233
In The Aeroplane Over The Sea
Matt Pond PA
Title:  'In The Aeroplane Over The Sea'
Artist: matt pond PA (mattpondpa.com)
Album:  Winter Songs (EP)
Tabbed by Jorge Díaz (j_diaz_s@yahoo.com)


 [ Neutral Milk Hotel cover ]


            E A D G B E

G         --3-2-0-0-3-3--|
Em7       --0-2-2-0-3-0--|
Em7sus2   --0-2-2-0-3-3--|
Cadd9sus4 --x-3-2-0-3-0--|
Cadd9     --x-3-2-0-3-3--|
D         --x-x-0-2-3-2--|
Dsus2     --x-x-0-2-3-3--|



 Intro: (0:15)   [ Play verses this way ]

   G	    Em7	     Cadd9sus4   D
E ----------------------------------0-------|
B ------3---------3---------3---------3-----|
G ----0---0-----0---0-----0---0--------(0)--|
D -------------------------------0----------|
A ---------------------3--------------------|
E -3---------0------------------------------|


 Verse 1: (0:23)

G		  Em7
What a beautiful face
		      Cadd9sus4 
I have found in this place
		 D 
That is circling all round the sun 
G		   Em7
What a beautiful dream
			  Cadd9sus4 
That could flash on the screen 
		 D		      G
In a blink of an eye and be gone from me
       Em7
Soft and sweet 
	Cadd9sus4	   D
Let me hold it close and keep it here 
      G   Em7   Cadd9sus4   D
with me 


 Verse 2: (0:52)

G		     Em7
And one day we will die
		     Cadd9sus4		  D
And our ashes will fly from the aeroplane over the sea 
G		    Em7
But for now we are young
		   Cadd9sus4
Let us lay in the sun
		  D			G
And count every beautiful thing we can see 
       Em7
Love to be
	Cadd9sus4	D 
In the arms of all I'm keeping here 
      G   Em7   Cadd9sus4   D
with me 


 (1:21)
 
  Em7sus2    Cadd9	     G	             D	
E -----------0--0-0--0-0---------------------------------|
B -------0-3-------------3-1-0---0-0h1h3-1-0-------------|
G -----0-------------------------------------2----0-2-0--|
D ----------------------------------------------4--------|
A -------------------------------------------------------|
E -------------------------------------------------------|

  Em7sus2	   Cadd9       G	     D	
E -----------------0--------------------------------0------|
B -----3-3-1-0-------3-----1---0-0-----------3--3-3---3-3--|
G -------------2-0-----0h2---------2-0---------------------|
D -------------------------------------4--2----------------|
A ---------------------------------------------------------|
E ---------------------------------------------------------|


 Verse 3: (1:49)

G		Em7
What a curious life
		    Cadd9sus4
we have found here tonight 
		    D
There is music that sounds from the street 
G			  Em7
There are lights in the clouds 
		   Cadd9sus4
Anna's ghost all around 
		   D				G
Hear her voice as it's rolling and ringing through me 
       Em7
Soft and sweet 
	 Cadd9sus4	    D
How the notes all bend and reach above
   G   Em7   Cadd9sus4   D
the trees 


 (2:18)

Em7sus2		    Cadd9
Now how I remember you 
			      G
How I would push my fingers through
				  D 
Your mouth to make those muscles move
				     Em7sus2 
That made your voice so smooth and sweet
				 Cadd9 
And now we keep where we don't know
			      G 
All secrets sleep in winter clothes
			   D 
With one you loved so long ago 
			    (Em7sus2)
Now he don't even know his name 


 (2:48)

  Em7sus2   Cadd9	   G		  D	
E ----------------------------------------------0--------|
B -----3--------3------3-------3------3------3----3--(3)-|
G ----0-0------0-0----0-0-----0-0----0-0----0-0----(0)---|
D ---0---0----0---0--0---0---0---0--0---0--0-------------|
A -------------------------------------------------------|
E -------------------------------------------------------|


 Verse 4: (3:01)

G		  Em7
What a beautiful face
		      Cadd9sus4 
I have found in this place 
		 D
That is circling all round the sun 
G			Em7
And when we meet on a cloud
		     Cadd9sus4 
I'll be laughing out loud 
		  D		  G
I'll be laughing with everyone I see
	Em7	     Cadd9sus4	  D 
Can't believe how strange it is to be anything 
  G   Em7   Cadd9sus4   D 
at all      (oooh oooh)


 Outro: (3:30)

 [ G Em7sus2 Cadd9 (D-Dsus2) ] (x2)


 [ Ends with G ]
Добавлено: 14.03.2012
Другие материалы по этой песне:
  • Аккорды и текст

Страница создана 14.03.2012
http://primanota.ru/matt-pond-pa/in-the-aeroplane-over-the-sea-chords.htm
Привет, Гость.
Предлагаем пройти революционный курс по гитаре.
Подарок от PrimaNota.Ru, забирай!