PrimaNota.ru - самый крупный в мире бесплатный архив песенных текстов, аккордов, табулатур и нот


Matt Pond PA - East Coast E - текст песни, таба, видео

Регистрация Запомнить меня
Войти через:  Facebook Google Twitter Vk Yandex Mail.ru

Matt Pond PA - East Coast E - текст песни, таба, видео

Печатать
Просмотров: 131
Title:  'East Coast E.'
Artist: matt pond PA (mattpondpa.com)
Album:  Emblems
Tabbed by Jorge Díaz (j_diaz_s@yahoo.com)


 Note: Tune your guitar to OPEN G (D G D G B D).
       Use CAPO on 4th fret.
 


 Intro:


D ----------------------------------------|
B ------0--------0---------0--------------|
G ----0---0----0---0-----0---0-----0-2-0--|
D ----------------------------------------| (x2)
G -0------------------4---(4)---2---------|
D ----------------------------------------|


 Verse 1: (0:13)

D --------------------------------------|
B ------0--------0--------0--------0----|
G ----0--0-----0--0-----0--0-----0--0---|
D ---0-0--0---0-0--0---0-0--0---0-0--0--|
G -0-------(0)-------4--------2---------|
D --------------------------------------|
 it stopped raining against the windows 

D --------------------------------------|
B ------0--------0--------0--------0----|
G ----0--0-----0--0-----0--0-----0--0---|
D ---0-0--0---0-0--0---0-0--0---0-0--0--|
G -0-------(0)--------------------------|
D -------------------2-------(2)--------|
 in the late days before july

D --------------------------------------|
B ------0--------0--------0--------0----|
G ----0--0-----0--0-----0--0-----0--0---|
D ---0-0--0---0-0--0---0-0--0---0-0--0--|
G -0-------(0)-------4--------2---------|
D --------------------------------------|
 we used our bodies against our reason

D --------------------------------------|
B ------0--------0--------0--------0----|
G ----0--0-----0--0-----0--0-----0--0---|
D ---0-0--0---0-0--0---0-0--0---0-0--0--|
G -0-------(0)--------------------------|
D -------------------2-------(2)--------|
 as we threw ourselves from in to outside


 (0:36)

D --0-----0-----0------0-----0-----0-----|
B --0-----0-----0------0-----0-----0-----|
G --0--0--0--0--0------0--0--0--0--0--0--|
D --0--0--0--0--0------0--0--0--0--0--0--| (x2)
G --4--4--4--4--4--4/7-2--2--2--2--2--2--|
D ---------------------------------------|


 Verse 2: (0:48)

D --------------------------------------|
B ------0--------0--------0--------0----|
G ----0--0-----0--0-----0--0-----0--0---|
D ---0-0--0---0-0--0---0-0--0---0-0--0--|
G -0-------(0)-------4--------2---------|
D --------------------------------------|
 through the glass we'd pass the graveyards

D --------------------------------------|
B ------0--------0--------0--------0----|
G ----0--0-----0--0-----0--0-----0--0---|
D ---0-0--0---0-0--0---0-0--0---0-0--0--|
G -0-------(0)--------------------------|
D -------------------2-------(2)--------|
 the speed was part of killing our time

D --------------------------------------|
B ------0--------0--------0--------0----|
G ----0--0-----0--0-----0--0-----0--0---|
D ---0-0--0---0-0--0---0-0--0---0-0--0--|
G -0-------(0)-------4--------2---------|
D --------------------------------------|
 our mouths were moving suggesting promise

D --------------------------------------|
B ------0--------0--------0--------0----|
G ----0--0-----0--0-----0--0-----0--0---|
D ---0-0--0---0-0--0---0-0--0---0-0--0--|
G -0-------(0)--------------------------|
D -------------------2-------(2)--------|
 smartly promise can change into lies


 Chorus 1: (1:10)

D --0-------0-------0-------0-------0------|
B --0-------0-------0-------0-------0------|
G --0---0---0---0---0---0---0---0---0---0--|
D --0---0---0---0---0---0---0---0---0---0--|
G --4---4---4---4---4---4---2---2---2---2--|
D -----------------------------------------|
 caught in a car you weren't driving

D --0-------0-------0-------0-------0------|
B --0-------0-------0-------0-------0------|
G --0---0---0---0---0---0---0---0---0---0--|
D --0---0---0---0---0---0---0---0---0---0--|
G --4---4---4---4---4---4---2---2---2---2--|
D -----------------------------------------|
 wondered where they'd let you off

D --0-------0-------0-------0-------0------|
B --0-------0-------0-------0-------0------|
G --0---0---0---0---0---0---0---0---0---0--|
D --0---0---0---0---0---0---0---0---0---0--|
G --4---4---4---4---4---4---2---2---2---2--|
D -----------------------------------------|
 before the impact you smiled

D --0-------0-------0-------0-------0-------0--(0)--|
B --0-------0-------0-------0-------0-------0--(0)--|
G --0---0---0---0---0---0---0---0---0---0---0--(0)--|
D --0---0---0---0---0---0---0---0---0---0---0--(0)--|
G --4---4---4---4---4---4---2---2---2---2---2--(0)--|
D --------------------------------------------------|
before the impact you said what a great summer night 


 (1:46)

D --0-0-0-0--0-0-0-0--0-0-0-0--0-0-0-0--|
B --0-0-0-0--0-0-0-0--0-0-0-0--0-0-0-0--|
G --0-0-0-0--0-0-0-0--0-0-0-0--0-0-0-0--|
D --0-0-0-0--0-0-0-0--0-0-0-0--0-0-0-0--| (x2)
G --4-4-4-4--2-2-2-2--4-4-4-4--7-7-7-7--|
D --------------------------------------|


 Chorus 2: (2:07)

D --0-------0-------0-------0-------0------|
B --0-------0-------0-------0-------0------|
G --0---0---0---0---0---0---0---0---0---0--|
D --0---0---0---0---0---0---0---0---0---0--|
G --4---4---4---4---4---4---2---2---2---2--|
D -----------------------------------------|
 you were looking at your fingers

D --0-------0-------0-------0-------0------|
B --0-------0-------0-------0-------0------|
G --0---0---0---0---0---0---0---0---0---0--|
D --0---0---0---0---0---0---0---0---0---0--|
G --4---4---4---4---4---4---2---2---2---2--|
D -----------------------------------------|
 you were counting for control

D --0-------0-------0-------0-------0------|
B --0-------0-------0-------0-------0------|
G --0---0---0---0---0---0---0---0---0---0--|
D --0---0---0---0---0---0---0---0---0---0--|
G --4---4---4---4---4---4---2---2---2---2--|
D -----------------------------------------|
 i'd never heard so much quiet

D --0-------0-------0-------0-------0-------0------(0)--|
B --0-------0-------0-------0-------0-------0------(0)--|
G --0---0---0---0---0---0---0---0---0---0---0--0---(0)--|
D --0---0---0---0---0---0---0---0---0---0---0--0---(0)--|
G --4---4---4---4---4---4---2---2---2---2---2--2---(0)--|
D ------------------------------------------------------|
 i'd never heard so little breath or so few of your words


 Verse 3: (2:33) [ Same as Verse 1-2 ]

ahead of safety we'd gone much farther
faster the trees blurred the lines
the last few moments the seconds slowed up
as the tires pointed at the sky


 Chorus: (2:54) [ Same as Chorus 1-2 ]

caught in a car you weren't driving
wondered where they'd let you off
before the impact you smiled
before the impact you said what a great summer night 


 (3:18)

D ---0---0---0---0----0---0----0---0---7-7-7-5-5h7-7--|
B ----0---0---0---0----0---0----0---0-----------------|
G -----0---0---0---0----0---0----0---0----------------|
D ----------------------------------------------------| (x2)
G -0-----------------4--------2-----------------------|
D ----------------------------------------------------|

 Outro: (3:31)

D -0---0----0---0----0---0----0---0---0------0---0---0---0--|
B -0---0----0---0----0---0----0---0---0------0---0---0---0--|
G -0---0----0---0----0---0----0---0---0------0---0---0---0--|
D -0---0----0---0----0---0----0---0---0------0---0---0---0--|
G -0---0----4---4----2---2----0---0---0------4---4---2---2--|
D ----------------------------------------------------------|
  extras get on the set   extras get on the set  extras get  

D -0---0---0-----0---0---0---0---0---0---0----0---0----0---0----------|
B -0---0---0-----0---0---0---0---0---0---0----0---0----0---0----------|
G -0---0---0-----0---0---0---0---0---0---0----0---0----0---0-----(0)--|
D -0---0---0-----0---0---0---0---0---0---0----0---0----0---0----------|
G -0---0---0-----4---4---2---2---0---0---0----4---4----2---2---0------|
D --------------------------------------------------------------------|
  on the set extras get on the set extras get on  the set.
Добавлено: 09.05.2012
Другие материалы по этой песне:
  • Аккорды и текст

Страница создана 03.03.2012
http://primanota.ru/matt-pond-pa/east-coast-e-chords.htm
Привет, Гость.
Предлагаем пройти революционный курс по гитаре.
Подарок от PrimaNota.Ru, забирай!