PrimaNota.ru - самый крупный в мире бесплатный архив песенных текстов, аккордов, табулатур и нот


Matt Pond PA - Devil In The Water - текст песни, таба, видео

Регистрация Запомнить меня
Войти через:  Facebook Google Twitter Vk Yandex Mail.ru

Matt Pond PA - Devil In The Water - текст песни, таба, видео

Печатать
Просмотров: 139
Title:  'Devil in the Water'
Artist: matt pond PA (mattpondpa.com)
Album:  Several Arrows Later
Tabbed by Jorge Díaz (j_diaz_s@yahoo.com)

 [ Special Thanks to Bruce Dalrymple ]

         E A D G B E

Dmaj  --x-x-0-2-3-5--|
D     --x-x-0-2-3-2--|
G     --3-2-0-0-0-3--|
Em    --0-2-2-0-0-0--|
A     --x-0-2-2-2-0--|



 Intro: [  Dmaj  D  ] (x2)


 Verse 1: (0:29)

             Dmaj
tonight the sounds are from the ceiling
            G
they turned up to be a floor
             Em
strained on muffled conversations
          A
the eyes hesitate for more


 Verse 2: (0:44)

       Dmaj
laying low but not escaping
         G
find by contrast what is free
        Em
hear reminders in the spacing
             A
the time when it is hard to breathe


 (0:58)

  (A)              Dmaj              Dmaj              Dmaj
E -----------------------------------------------------------------------|
B -----------------10---------10-----10---------10-----10---------10-----|
G -----------9h11-----11-9-------11-----11-9-------11-----11-9-------11--|
D ---9h11-12---------------12----------------12----------------12--------|
A -12--------------------------------------------------------------------|
E -----------------------------------------------------------------------|


 Chorus: (1:14)

       G
E -------------------------------------------|
B -----3-----------5----------7-----------8--|
G -------------------------------------------|
D -------------------------------------------|
  the sun on the street - looks good to me

   G                                                       D       D
E ------------------------------------------------------------------|
B -3-----------5----------7-------------------8------------5/7-3/2--|
G ------------------------------------------------------------------|
D ------------------------------------------------------------------|
  burning and gold for a while, it's hard to see where we come from


   G
E -----------------------------------|
B -------3---------5-----7--------8--|
G -----------------------------------|
D -----------------------------------|
  let's go to the sea - take memory

   G                                          D      D
E ----------------------------------------------------|
B -3---------5-------------7---------8-------5/7-3/2--|
G ----------------------------------------------------|
D ----------------------------------------------------|
  buried in sand 'til the tide comes in and drowns it


 (1:43)

   G                          D    D
E ----------------------------------|
B -3--5--7--8---3--5--7--8---5/7----|
G -------------------------------2--|
D ----------------------------------|

  (A D)     G         (A G)        D         
E --------------------------------------------|
B ------------7--3-------------------3--2-----|
G ------------------0----------------------2--|
D -----0--2----------------0------------------| (x2)
A -0h2-----------------0h2---2--0-0-----------|
E --------------------------------------------|



 Verse 3: (2:28)

          Dmaj
no one's pulling up the floorboards
         G
to find out how we can stand
              Em
stop throwing salt outside the windows
         A
looking hard to see it land


 Chorus: (2:43)

       G
E -------------------------------------------|
B -----3-----------5----------7-----------8--|
G -------------------------------------------|
D -------------------------------------------|
  the sun on the street - looks good to me

   G                                                         D      D
E --------------------------------------------------------------------|
B -3-----------5----------7-------------------8--------------5/7------|
G -----------------------------------------------------------------2--|
D --------------------------------------------------------------------|
  burning and yellow for a while, it's hard to see where we come from


   G
E -----------------------------------|
B -------3---------5-----7--------8--|
G -----------------------------------|
D -----------------------------------|
  let's go to the sea - take memory

   G                                          D      D
E ----------------------------------------------------|
B -3---------5-------------7---------8-------5/7------|
G ------------------------------------------------2---|
D ----------------------------------------------------|
  buried in sand 'til the tide comes in and drowns it


 (3:13)

   G                          D    D
E ----------------------------------|
B -3--5--7--8---3--5--7--8---5/7----|
G -------------------------------2--|
D ----------------------------------|

  (A D)     G         (A G)        D
E --------------------------------------------|
B ------------7--3-------------------3--2-----|
G ------------------0----------------------2--|
D -----0--2----------------0------------------| (x2)
A -0h2-----------------0h2---2--0-0-----------|
E --------------------------------------------|


 [  Dmaj  D  ]


 Outro: (4:13)

 Dmaj
no one knows what anybody knows
 Dmaj
no one knows what they're thinking about
  D
spend our time guessing, spend it all
  D
spend our time guessing, spend it all


 Dmaj
no one knows what anybody knows         (when it's over) 
 Dmaj
no one knows what they're thinking about
  D
spend our time guessing, spend it all   (why can't it be gone) 
  D
spend our time guessing, spend it all


     Dmaj
the sun on the street looks good to me  (when it's over) 
 Dmaj
burning and yellow for a while it's hard to see where we...
    D
let's go to the sea take memory         (why can't it be gone) 
 D
buried in sand 'til the tide comes in and drowns it


E ---------------------------------------------2------|
B ------------3--5--7--8--3--5--7--8-----------3------|
G ---------------------------------------------2------|
D ---------------------------------------------0------|
A -----------------------------------------------(0)--|
E ----------------------------------------------------|
  when it's over                 why can't it be gone. 
Добавлено: 20.05.2012
Другие материалы по этой песне:
  • Аккорды и текст

Страница создана 08.05.2012
http://primanota.ru/matt-pond-pa/devil-in-the-water-chords.htm
Привет, Гость.
Предлагаем пройти революционный курс по гитаре.
Подарок от PrimaNota.Ru, забирай!