PrimaNota.ru - самый крупный в мире бесплатный архив песенных текстов, аккордов, табулатур и нот


Matt Pond PA - Closer - таба, бас-таба, видео

Регистрация Запомнить меня
Войти через:  Facebook Google Twitter Vk Yandex Mail.ru

Matt Pond PA - Closer - таба, бас-таба, видео

Печатать
Просмотров: 183
Title:  'Closer'
Artist: matt pond PA (mattpondpa.com)
Album:  The Nature of Maps
Tabbed by Jorge Díaz (j_diaz_s@yahoo.com)


 Note: Tune the 6th string from E to G.
       Tune the 5th String from A to G.
       Tune the 1st string from E to D.
       Use CAPO on 3rd fret.
 

 Intro:


D -5--5--5-5--5-5--5-5--5-5--5-5--5-5--5--|
B -0--0--3r0--3r0--3r0--3r0--3r0--3r0--0--|
G -0--0--0-0--0-0--0-0--0-0--0-0--0-0--0--|
D -0--0--0-0--0-0--0-0--0-0--0-0--0-0--0--| (x2)
G -0--0--0-0--0-0--0-0--0-0--0-0--0-0--0--|
G -0--0--0-0--0-0--0-0--0-0--0-0--0-0--0--|

 (0:07)

   D -0-0-0--0-0-0--0-0-0--0-0-0--0-0-0--0-0-0--0-0-0--0-0-0--0--|
   B -0-0-0--0-0-0--0-0-0--0-0-0--0-0-0--0-0-0--0-0-0--0-0-0--0--|
   G -0-0-0--0-0-0--0-0-0--0-0-0--0-0-0--0-0-0--0-0-0--0-0-0--0--|
1  D -0-0-0--0-0-0--0-0-0--0-0-0--0-0-0--0-0-0--0-0-0--0-0-0--0--|
   G -0-0-0--2-2-2--4-4-4--7-7-7--5-5-5--7-7-7--5-5-5--7-7-7--2--|
   G -0-0-0--2-2-2--4-4-4--7-7-7--5-5-5--7-7-7--5-5-5--7-7-7--2--|

   D --------7--9------------------7-9--------------7-9--------7-----|
   B --8------------5-(3)--7h8-8-8-----7h8--7h8-8-8-----7h8--7---7h8-|
   G ----------------------------------------------------------------|
2  D ----------------------------------------------------------------|
   G ----------------------------------------------------------------|
   G ----------------------------------------------------------------|



 Verse 1: (0:20)

D ------------0-0-0-0-------0-0-0-0----------0-0-0-0--|
B ------------0-0-0-0-------0-0-0-0----------0-0-0-0--|
G ------------0-0-0-0-------0-0-0-0----------0-0-0-0--|
D ------------0-0-0-0-------0-0-0-0----------0-0-0-0--|
G ------------0-0-0-0-------2-2-2-2----------4-4-4-4--|
G ------------0-0-0-0-------2-2-2-2----------4-4-4-4--|
  It was the rocks you liked, So much you'd throw them

D -0-0-0-0---------------0-0-0-0----0-0-0-0-----------------------0-0-0-0--|
B -0-0-0-0---------------0-0-0-0----0-0-0-0-----------------------0-0-0-0--|
G -0-0-0-0---------------0-0-0-0----0-0-0-0-----------------------0-0-0-0--|
D -0-0-0-0---------------0-0-0-0----0-0-0-0-----------------------0-0-0-0--|
G -7-7-7-7---------------5-5-5-5----7-7-7-7-----------------------5-5-5-5--|
G -7-7-7-7---------------5-5-5-5----7-7-7-7-----------------------5-5-5-5--|
  Down into the river's darkness,  Down from where the trains go flying

D ------0-0-0-0--0---|
B ------0-0-0-0--0---|
G ------0-0-0-0--0---|
D ------0-0-0-0--0---|
G ------7-7-7-7-(2)--|
G ------7-7-7-7-(2)--|
  Your legs hung out



 Verse 2: (0:36)

D -0-0-0-0--0-0-0-0------------0-0-0-0--|
B -0-0-0-0--0-0-0-0------------0-0-0-0--|
G -0-0-0-0--0-0-0-0------------0-0-0-0--|
D -0-0-0-0--0-0-0-0------------0-0-0-0--|
G -0-0-0-0--2-2-2-2------------4-4-4-4--|
G -0-0-0-0--2-2-2-2------------4-4-4-4--|
  Into the air, we'll keep on kicking

D -------0-0-0-0---------------0-0-0-0--0-0-0-0------------------0-0-0-0--|
B -------0-0-0-0---------------0-0-0-0--0-0-0-0------------------0-0-0-0--|
G -------0-0-0-0---------------0-0-0-0--0-0-0-0------------------0-0-0-0--|
D -------0-0-0-0---------------0-0-0-0--0-0-0-0------------------0-0-0-0--|
G -------7-7-7-7---------------5-5-5-5--7-7-7-7------------------5-5-5-5--|
G -------7-7-7-7---------------5-5-5-5--7-7-7-7------------------5-5-5-5--|
  We're moving but it's never going, When we go it's like we're faking

D -----0-0-0-0--0---|
B -----0-0-0-0--0---|
G -----0-0-0-0--0---|
D -----0-0-0-0--0---|
G -----7-7-7-7-(2)--|
G -----7-7-7-7-(2)--|
  Two palms, no sound



 Chorus: (0:50)

D -0-0-0-0-----0-0-0-0----0-0-0-0---------------0-0-0-0--|
B -0-0-0-0-----0-0-0-0----0-0-0-0---------------0-0-0-0--|
G -0-0-0-0-----0-0-0-0----0-0-0-0---------------0-0-0-0--|
D -0-0-0-0-----0-0-0-0----0-0-0-0---------------0-0-0-0--|
G -0-0-0-0-----2-2-2-2----4-4-4-4---------------7-7-7-7--|
G -0-0-0-0-----2-2-2-2----4-4-4-4---------------7-7-7-7--|
  Closer and closer, The beam's width that's between us

D ------0-0-0-0-------0-0-0-0---0-0-0-0-----------0-0-0-0--|
B ------0-0-0-0-------0-0-0-0---0-0-0-0-----------0-0-0-0--|
G ------0-0-0-0-------0-0-0-0---0-0-0-0-----------0-0-0-0--|
D ------0-0-0-0-------0-0-0-0---0-0-0-0-----------0-0-0-0--|
G ------5-5-5-5-------7-7-7-7---5-5-5-5-----------7-7-7-7--|
G ------5-5-5-5-------7-7-7-7---5-5-5-5-----------7-7-7-7--|
  Gets just a little leaner, We ought to fail to see it


  D -0-0-0--------0-0-0--0-0-0--0-0-0---0-0-0----------0-0-0--0-0-0--0-0-0-|
  B -0-0-0--------0-0-0--0-0-0--0-0-0---0-0-0----------0-0-0--0-0-0--0-0-0-|
  G -0-0-0--------0-0-0--0-0-0--0-0-0---0-0-0----------0-0-0--0-0-0--0-0-0-|
1 D -0-0-0--------0-0-0--0-0-0--0-0-0---0-0-0----------0-0-0--0-0-0--0-0-0-|
  G -0-0-0--------2-2-2--4-4-4--7-7-7---0-0-0----------2-2-2--4-4-4--7-7-7-|
  G -0-0-0--------2-2-2--4-4-4--7-7-7---0-0-0----------2-2-2--4-4-4--7-7-7-|

  D ----7-9----7-9----7---------------------7-9----7-9----7----------------|
  B --8------8------8---------------------8------8------8------------------|
  G -------------------------0-0-0-0-0-0-----------------------0-0-0-0-0-0-|
2 D -------------------------4-4-4-5-5-5-----------------------4-4-4-5-5-5-|
  G -----------------------------------------------------------------------|
  G -----------------------------------------------------------------------|
       And if I go    to the left         And if you move to the right


  D -0-0-0--------0-0-0--0-0-0--0-0-0---0-0-0----------0-0-0--0-0-0--0-0-0-|
  B -0-0-0--------0-0-0--0-0-0--0-0-0---0-0-0----------0-0-0--0-0-0--0-0-0-|
  G -0-0-0--------0-0-0--0-0-0--0-0-0---0-0-0----------0-0-0--0-0-0--0-0-0-|
1 D -0-0-0--------0-0-0--0-0-0--0-0-0---0-0-0----------0-0-0--0-0-0--0-0-0-|
  G -0-0-0--------2-2-2--4-4-4--7-7-7---0-0-0----------2-2-2--4-4-4--7-7-7-|
  G -0-0-0--------2-2-2--4-4-4--7-7-7---0-0-0----------2-2-2--4-4-4--7-7-7-|

  D ----7-9----7-9----7---------------------7-9----7-9----7----------------|
  B --8------8------8---------------------8------8------8------------------|
  G -------------------------0-0-0-0-0-0-----------------------0-0-0-0-0-0-|
2 D -------------------------4-4-4-5-5-5-----------------------4-4-4-5-5-5-|
  G -----------------------------------------------------------------------|
  G -----------------------------------------------------------------------|
    So that we've hit and spilled      We've turned it off in the night



 (1:32)


   D -0-0-0--0-0-0--0-0-0--0-0-0--0-0-0--0-0-0--0-0-0--0-0-0--0--|
   B -0-0-0--0-0-0--0-0-0--0-0-0--0-0-0--0-0-0--0-0-0--0-0-0--0--|
   G -0-0-0--0-0-0--0-0-0--0-0-0--0-0-0--0-0-0--0-0-0--0-0-0--0--|
1  D -0-0-0--0-0-0--0-0-0--0-0-0--0-0-0--0-0-0--0-0-0--0-0-0--0--|
   G -0-0-0--2-2-2--4-4-4--7-7-7--5-5-5--7-7-7--5-5-5--7-7-7--2--|
   G -0-0-0--2-2-2--4-4-4--7-7-7--5-5-5--7-7-7--5-5-5--7-7-7--2--|

   D --------7--9------------------7-9--------------7-9--------7-----|
   B --8------------5-(3)--7h8-8-8-----7h8--7h8-8-8-----7h8--7---7h8-|
   G ----------------------------------------------------------------|
2  D ----------------------------------------------------------------|
   G ----------------------------------------------------------------|
   G ----------------------------------------------------------------|



 Verse 3: (1:46)

D -------------0-0-0-0-------0-0-0-0-------------0-0-0-0--|
B -------------0-0-0-0-------0-0-0-0-------------0-0-0-0--|
G -------------0-0-0-0-------0-0-0-0-------------0-0-0-0--|
D -------------0-0-0-0-------0-0-0-0-------------0-0-0-0--|
G -------------0-0-0-0-------2-2-2-2-------------4-4-4-4--|
G -------------0-0-0-0-------2-2-2-2-------------4-4-4-4--|
  Between the banks that roll, The glass hidden motion

D ---0-0-0-0---------------0-0-0-0---0-0-0-0--------------------0-0-0-0--|
B ---0-0-0-0---------------0-0-0-0---0-0-0-0--------------------0-0-0-0--|
G ---0-0-0-0---------------0-0-0-0---0-0-0-0--------------------0-0-0-0--|
D ---0-0-0-0---------------0-0-0-0---0-0-0-0--------------------0-0-0-0--|
G ---7-7-7-7---------------5-5-5-5---7-7-7-7--------------------5-5-5-5--|
G ---7-7-7-7---------------5-5-5-5---7-7-7-7--------------------5-5-5-5--|
  Above we go on without knowing, The pines control the wild sarcasm

D -----0-0-0-0--0---|
B -----0-0-0-0--0---|
G -----0-0-0-0--0---|
D -----0-0-0-0--0---|
G -----7-7-7-7-(2)--|
G -----7-7-7-7-(2)--|
  To hold us up



 Verse 4: (2:01)

D -0-0-0-0------0-0-0-0--------------0-0-0-0--|
B -0-0-0-0------0-0-0-0--------------0-0-0-0--|
G -0-0-0-0------0-0-0-0--------------0-0-0-0--|
D -0-0-0-0------0-0-0-0--------------0-0-0-0--|
G -0-0-0-0------2-2-2-2--------------4-4-4-4--|
G -0-0-0-0------2-2-2-2--------------4-4-4-4--|
  And time was held, Well worth the holding

D ---0-0-0-0------------0-0-0-0--0-0-0-0---------------0-0-0-0--|
B ---0-0-0-0------------0-0-0-0--0-0-0-0---------------0-0-0-0--|
G ---0-0-0-0------------0-0-0-0--0-0-0-0---------------0-0-0-0--|
D ---0-0-0-0------------0-0-0-0--0-0-0-0---------------0-0-0-0--|
G ---7-7-7-7------------5-5-5-5--7-7-7-7---------------5-5-5-5--|
G ---7-7-7-7------------5-5-5-5--7-7-7-7---------------5-5-5-5--|
  Waste when you try to save,  Save it and it ends up wasted

D -----0-0-0-0--0---|
B -----0-0-0-0--0---|
G -----0-0-0-0--0---|
D -----0-0-0-0--0---|
G -----7-7-7-7-(2)--|
G -----7-7-7-7-(2)--|
  You know these words



 Chorus: (2:15)

D -0-0-0-0-----0-0-0-0----0-0-0-0---------------0-0-0-0--|
B -0-0-0-0-----0-0-0-0----0-0-0-0---------------0-0-0-0--|
G -0-0-0-0-----0-0-0-0----0-0-0-0---------------0-0-0-0--|
D -0-0-0-0-----0-0-0-0----0-0-0-0---------------0-0-0-0--|
G -0-0-0-0-----2-2-2-2----4-4-4-4---------------7-7-7-7--|
G -0-0-0-0-----2-2-2-2----4-4-4-4---------------7-7-7-7--|
  Closer and closer, The beam's width that's between us

D ------0-0-0-0-------0-0-0-0---0-0-0-0-----------0-0-0-0--|
B ------0-0-0-0-------0-0-0-0---0-0-0-0-----------0-0-0-0--|
G ------0-0-0-0-------0-0-0-0---0-0-0-0-----------0-0-0-0--|
D ------0-0-0-0-------0-0-0-0---0-0-0-0-----------0-0-0-0--|
G ------5-5-5-5-------7-7-7-7---5-5-5-5-----------7-7-7-7--|
G ------5-5-5-5-------7-7-7-7---5-5-5-5-----------7-7-7-7--|
  Gets just a little leaner, We ought to fail to see it


  D -0-0-0--------0-0-0--0-0-0--0-0-0---0-0-0----------0-0-0--0-0-0--0-0-0-|
  B -0-0-0--------0-0-0--0-0-0--0-0-0---0-0-0----------0-0-0--0-0-0--0-0-0-|
  G -0-0-0--------0-0-0--0-0-0--0-0-0---0-0-0----------0-0-0--0-0-0--0-0-0-|
1 D -0-0-0--------0-0-0--0-0-0--0-0-0---0-0-0----------0-0-0--0-0-0--0-0-0-|
  G -0-0-0--------2-2-2--4-4-4--7-7-7---0-0-0----------2-2-2--4-4-4--7-7-7-|
  G -0-0-0--------2-2-2--4-4-4--7-7-7---0-0-0----------2-2-2--4-4-4--7-7-7-|

  D ----7-9----7-9----7---------------------7-9----7-9----7----------------|
  B --8------8------8---------------------8------8------8------------------|
  G -------------------------0-0-0-0-0-0-----------------------0-0-0-0-0-0-|
2 D -------------------------4-4-4-5-5-5-----------------------4-4-4-5-5-5-|
  G -----------------------------------------------------------------------|
  G -----------------------------------------------------------------------|
       And if I go    to the left         And if you move to the right


  D -0-0-0--------0-0-0--0-0-0--0-0-0---0-0-0----------0-0-0--0-0-0--0-0-0-|
  B -0-0-0--------0-0-0--0-0-0--0-0-0---0-0-0----------0-0-0--0-0-0--0-0-0-|
  G -0-0-0--------0-0-0--0-0-0--0-0-0---0-0-0----------0-0-0--0-0-0--0-0-0-|
1 D -0-0-0--------0-0-0--0-0-0--0-0-0---0-0-0----------0-0-0--0-0-0--0-0-0-|
  G -0-0-0--------2-2-2--4-4-4--7-7-7---0-0-0----------2-2-2--4-4-4--7-7-7-|
  G -0-0-0--------2-2-2--4-4-4--7-7-7---0-0-0----------2-2-2--4-4-4--7-7-7-|

  D ----7-9----7-9----7---------------------7-9----7-9----7----------------|
  B --8------8------8---------------------8------8------8------------------|
  G -------------------------0-0-0-0-0-0-----------------------0-0-0-0-0-0-|
2 D -------------------------4-4-4-5-5-5-----------------------4-4-4-5-5-5-|
  G -----------------------------------------------------------------------|
  G -----------------------------------------------------------------------|
    So that we've hit and spilled      We've turned it off in the night


 (2:58) [ play this twice ]

D -5--5--5-5--5-5--5-5--5-5--5-5--5--|
B -0--0--3r0--3r0--3r0--3r0--3r0--0--|
G -0--0--0-0--0-0--0-0--0-0--0-0--0--|
D -0--0--0-0--0-0--0-0--0-0--0-0--0--|
G -0--0--0-0--0-0--0-0--0-0--0-0--0--|
G -0--0--0-0--0-0--0-0--0-0--0-0--0--|

D --0-0-0--0-0-0--0-0-0--0-0-0--0-0-0--0-0-0--0-0-0--0-0-0--|
B --0-0-0--0-0-0--0-0-0--0-0-0--0-0-0--0-0-0--0-0-0--0-0-0--|
G --5-5-5--4-4-4--2-2-2--0-0-0--0-0-0--0-0-0--0-0-0--0-0-0--|
D --0-0-0--0-0-0--0-0-0--0-0-0--4-4-4--2-2-2--4-4-4--7-7-7--|
G --0-0-0--0-0-0--0-0-0--0-0-0--0-0-0--0-0-0--0-0-0--0-0-0--|
G --0-0-0--0-0-0--0-0-0--0-0-0--0-0-0--0-0-0--0-0-0--0-0-0--|

 Chorus 2: (3:26)


D -0-0-0-0-----0-0-0-0----0-0-0-0---------------0-0-0-0--|
B -0-0-0-0-----0-0-0-0----0-0-0-0---------------0-0-0-0--|
G -0-0-0-0-----0-0-0-0----0-0-0-0---------------0-0-0-0--|
D -0-0-0-0-----0-0-0-0----0-0-0-0---------------0-0-0-0--|
G -0-0-0-0-----2-2-2-2----4-4-4-4---------------7-7-7-7--|
G -0-0-0-0-----2-2-2-2----4-4-4-4---------------7-7-7-7--|
  Closer and closer, The beam's width that's between us

D ------0-0-0-0-------0-0-0-0---0-0-0-0-----------0-0-0-0--|
B ------0-0-0-0-------0-0-0-0---0-0-0-0-----------0-0-0-0--|
G ------0-0-0-0-------0-0-0-0---0-0-0-0-----------0-0-0-0--|
D ------0-0-0-0-------0-0-0-0---0-0-0-0-----------0-0-0-0--|
G ------5-5-5-5-------7-7-7-7---5-5-5-5-----------7-7-7-7--|
G ------5-5-5-5-------7-7-7-7---5-5-5-5-----------7-7-7-7--|
  Gets just a little leaner, We ought to fail to see it

D -0-0-0-0---0-0-0-0-------0-0-0-0------------0-0-0-0--|
B -0-0-0-0---0-0-0-0-------0-0-0-0------------0-0-0-0--|
G -0-0-0-0---0-0-0-0-------0-0-0-0------------0-0-0-0--|
D -0-0-0-0---0-0-0-0-------0-0-0-0------------0-0-0-0--|
G -0-0-0-0---2-2-2-2-------4-4-4-4------------7-7-7-7--|
G -0-0-0-0---2-2-2-2-------4-4-4-4------------7-7-7-7--|
  Answer we entered, The trains won't ride beside us

D ------0-0-0-0-------0-0-0-0-----0-0-0-0----------0-0-0-0--|
B ------0-0-0-0-------0-0-0-0-----0-0-0-0----------0-0-0-0--|
G ------0-0-0-0-------0-0-0-0-----0-0-0-0----------0-0-0-0--|
D ------0-0-0-0-------0-0-0-0-----0-0-0-0----------0-0-0-0--|
G ------5-5-5-5-------7-7-7-7-----5-5-5-5----------7-7-7-7--|
G ------5-5-5-5-------7-7-7-7-----5-5-5-5----------7-7-7-7--|
  But water moves beneath us, And takes away the sense of hearing it all 
 


 Outro: (3:54)

   D --0-0-0--0-0-0--0-0-0--0-0-0--0-0-0--0-0-0--0-0-0--0-0-0-0-----|
   B --0-0-0--0-0-0--0-0-0--0-0-0--0-0-0--0-0-0--0-0-0--0-0-0-0-----|
   G --0-0-0--0-0-0--0-0-0--0-0-0--0-0-0--0-0-0--0-0-0--0-0-0-0-----|
1  D --0-0-0--0-0-0--0-0-0--0-0-0--0-0-0--0-0-0--0-0-0--0-0-0-0--0--|
   G --0-0-0--2-2-2--4-4-4--7-7-7--5-5-5--7-7-7--5-5-5--7-7-7-7--0--|
   G --0-0-0--2-2-2--4-4-4--7-7-7--5-5-5--7-7-7--5-5-5--7-7-7-7--0--|

   D ------7--------7---------7---------7---------7---------7-------|
   B --8-7--7---8-7---7---8-7---7---8-7---7---8-7---7---8-7---7--8--|
   G ---------------------------------------------------------------|
2  D ---------------------------------------------------------------|
   G ---------------------------------------------------------------|
   G ---------------------------------------------------------------|
Добавлено: 21.05.2012
Другие материалы по этой песне:
  • Аккорды и текст

Страница создана 03.03.2012
http://primanota.ru/matt-pond-pa/closer-chords.htm
Привет, Гость.
Предлагаем пройти революционный курс по гитаре.
Подарок от PrimaNota.Ru, забирай!