PrimaNota.ru - самый крупный в мире бесплатный архив песенных текстов, аккордов, табулатур и нот


Matt Pond PA - A List Of Sound - текст песни, таба, видео

Регистрация Запомнить меня
Войти через:  Facebook Google Twitter Vk Yandex Mail.ru

Matt Pond PA - A List Of Sound - текст песни, таба, видео

Печатать
Просмотров: 92
Title:  'A List Of Sound'
Artist: matt pond PA (mattpondpa.com)
Album:  This Is Not The Green Fury
Tabbed by Jorge Díaz (j_diaz_s@yahoo.com)


            E A D G B E

G         --3-2-0-0-3-3--|
Em7       --0-2-2-0-3-0--|
Cadd9     --x-3-2-0-3-3--|
Cadd9sus4 --x-3-2-0-3-0--|


 Intro: (0:04)
  
      G     Em7    Cadd9 Cadd9sus4
E ---------------------------|
B --0h3---1-0----------------|
G ---------------2-0---------|
D ---------------------4-----| (x2)
A -----------------------0---|
E ---------------------------|


 Verse 1: (0:26)

	  G
took the ride up 
		  Em7
to the well for the town
	  Cadd9 
i had to see
		  Cadd9sus4
the view of the green 



 Verse 2: (0:37)

	      G
lighting the fire
		  Em7 
to the words in the way
		    Cadd9
i could hear you breathe 
		 Cadd9sus4
i could see you see 



 Chorus: (0:49)

   Cadd9 Cadd9sus4 Em7 Cadd9 Cadd9sus4 Em7
E --3-----------2-3----3------------2-3--3-----|
B ----3-------3----------3--------3--------3---|
G ------0------------------0-----------------0-|
D ---------------------------------------------|
A ---------------------------------------------|
E ---------------------------------------------|
         we want to make up a list of sound 

   Cadd9 Cadd9sus4 Em7   Cadd9
E -----3------------2-----3-3-3-3-------|
B -------3-------3--------3-3-3-3-------|
G ---------0--------------0-0-0-0-------|
D --------------------------------------|
A --------------------------------------|
E --------------------------------------|
  the repetition  we will not turn down



 (1:03)

   G                Em7
E -3-2-0-2-3-2-0-2--3-2-0-2-3-2-0-2-|
B ----------------------------------|
G ----------------------------------|
D ----------------------------------|
A ----------------------------------|
E ----------------------------------|

   Cadd9	      Cadd9sus4
E -3-2-0-2-3-2-0-2--3-2-0-2-3-2-0-2-|
B ----------------------------------|
G ----------------------------------|
D ----------------------------------|
A ----------------------------------|
E ----------------------------------|


 [ Verse 3 is played like previous ]



 Verse 3: (1:13)

	    G
we put our backs down 
			   Em7
to the tall grass turned gray 
		Cadd9
it helped to breathe
	      Cadd9sus4
it helped to see 



 Chrous: (1:24)

   Cadd9 Cadd9sus4 Em7 Cadd9 Cadd9sus4 Em7
E --3-----------2-3----3------------2-3--3-----|
B ----3-------3----------3--------3--------3---|
G ------0------------------0-----------------0-|
D ---------------------------------------------|
A ---------------------------------------------|
E ---------------------------------------------|
         we want to make up a list of sound 

   Cadd9 Cadd9sus4 Em7   Cadd9
E -----3------------2-----3-3-3-3-------|
B -------3-------3--------3-3-3-3-------|
G ---------0--------------0-0-0-0-------|
D --------------------------------------|
A --------------------------------------|
E --------------------------------------|
  the repetition  we will not turn down



 [ G Em7 Cadd9sus4 Cadd9sus4 ]  (1:38)  

    G			  Em7
from the gas station we stole
   Cadd9sus4		   Cadd9sus4
the idea there's nothing to know 
   G			    Em7
but it's the open tract of land
	  Cadd9sus4	   Cadd9sus4
it's the hardest part for you to understand 


 [ G Em7 Cadd9sus4 Cadd9sus4 ]  (2:11)


    G			 Em7
i could run home in the night
    Cadd9sus4		   Cadd9sus4
without signs or streets or light 
	G		      Em7
to the door where you stood still
	Cadd9sus4      Cadd9
i could see the spaces in the woods we filled 



 [ Repeat Intro ]



 Verse 4: [ Same as Verse 3 ]

below us was time
and it won't go away
i want to see
and i want to breathe



 Outro: (3:14)

   Cadd9 Cadd9sus4  Cadd9 Cadd9sus4 Cadd9
E -3-2-0-2-3-5-3-2--3-2-0-2-3-5-3-2-3--|
B -------------------------------------|
G -------------------------------------|
D -------------------------------------|
A -------------------------------------|
E -------------------------------------|
Добавлено: 04.03.2012
Другие материалы по этой песне:
  • Аккорды и текст

Страница создана 04.03.2012
http://primanota.ru/matt-pond-pa/a-list-of-sound-chords.htm
Привет, Гость.
Предлагаем пройти революционный курс по гитаре.
Подарок от PrimaNota.Ru, забирай!