PrimaNota.ru - самый крупный в мире бесплатный архив песенных текстов, аккордов, табулатур и нот


Matt Mays - Slow Burning Luck - аккорды и текст, видео

Регистрация Запомнить меня
Войти через:  Facebook Google Twitter Vk Yandex Mail.ru

Matt Mays - Slow Burning Luck - аккорды и текст, видео

Печатать
Просмотров: 113
Уроки эстрадного вокала в Санкт-Петербурге
Slow Burning Luck
Matt Mays
-------------------------------------------------------------------------------
                    SLOW BURNING LUCK - Matt Mays
-------------------------------------------------------------------------------
                     from the 2012 album Coyote

Tuning: Standard
Tabbed by: Rod Nolan
E-mail: rodnolan@gmail.com



INTRO

        F#m
                                                                     h
e|----------------|----------------|---5-------4----|----------------|----------------|
B|---7-----5---7--|----------------|----------------|---7------------|------5---------|
G|----------------|---6-----4------|----------------|-------------4--|--6---4---------|
D|----------------|-------------7--|----------------|----------------|----------------|
A|----------------|----------------|----------------|----------------|----------------|
E|----------------|----------------|----------------|----------------|----------------|

        F#m
                                                                     h
e|----------------|----------------|---5-------4----|----------------|----------------|
B|---7-----5---7--|----------------|----------------|---7------------|----------------|
G|----------------|---6-----4------|----------------|----------------|----------------|
D|----------------|-------------7--|----------------|----------------|------2---------|
A|----------------|----------------|----------------|-------------2--|--4---2---------|
E|----------------|----------------|----------------|----------------|----------------|


VERSE 1

        F#m           E 
        Makin like a ????
           D
        cracking like a whip
             F#m                      E 
        whoa ain't that just like my heart beat 
                   D
        when you kiss my lips

          F#m                E 
        highway lover the night is young
         D
        yeah the night is young
                 F#m           
        let the flight take the bullets 
          E                  D
        from the gun one by one by one by one by one  

CHORUS

             F#m
        whoa I
             E 
        whoa I 
             D
        whoa I 
                     E 
        don't want much
             F#m            E
        just four wheels turning
                   D 
        and some slow 
                 F#m
        burning luck

        F#m
        (intro riff - one or the other, not both, pick yer favourite)


VERSE 2

            F#m        E 
        as heavy as a mother's tear
              D
        as tangled as the wind
                  F#m           
        whoa lets waltz in through
             E                        D  
        the great stampede of this trouble that we're in

        F#m                           E 
        but highway lover you're the only one 
        D
        you're the only one
                F#m               E 
        and the sky is dark with arrows 
                         D
        yeah they're blacking out the sun
        C#                    D     E
        blacking out the sun        


CHORUS

        F#m 
        I 
             E
        whoa I 
             D 
        whoa I 
                    E
        don't want much
             F#m           E  
        just four wheels turning
                  D            E  
        and some slow burning luck

                F#m 
        take me high
              E
        whoa high
                D                E
        let me live and let me die
           F#m           E  
        on four wheels turning 
                  D 
        and some slow 
                 F#m
        burning luck

BRIDGE

                 F#m             D 
        yeah the highway opens like the sky 
              A           E
        and parts like a sea
                 F#m       
        yeah I'm leaving tired
            D              A         E
        I need some luck rising over me

          F#m           D 
        angels on the valley wall
                      A                  E
        singing only true love gets this far
                 F#m               D 
        and the love falls in like stars
                          D
        it's tripping me out
                          D   C#
        it's tripping me out 


INTERLUDE

        F#m              E                D                D                C#              
e|---9-------9----|--7--------7----|--5--------5----|--5--------5----|--4--------4----|
B|-----10------10-|--------9-----9-|-----7--------7-|-----7--------7-|-----6--------6-|
G|--------11------|-----9----------|--------7-------|--------7-------|--------6-------|
D|----------------|----------------|----------------|----------------|----------------|
A|----------------|----------------|----------------|----------------|----------------|
E|----------------|----------------|----------------|----------------|----------------|

    D      E (whoa ...)
e|--0000-x-000----|
B|--xxxx---xxx----|
G|--7777---999----|
D|--7777---999----|
A|--5555---777----|
E|----------------|
   \/\/ \ /\/


CHORUS

            F#m 
         ... I 
             E
        whoa I 
             D
        whoa I 
                     E 
        don't want much
             F#m           E  
        just four wheels turning
                  D            E  
        and some slow burning luck

                F#m 
        take me high
              E
        whoa high
                D                E
        let me live and let me die
            F#m           E  
        on four wheels turning 
                  D  
        and some slow 
                 F#m
        burning luck


OUTRO 

          E        D
        slow
                 F#m
         burning luck

          E        D
        slow
                 F#m
         burning luck

          E        D
        slow
                 F#m
         burning luck

          E        D
        slow
                 F#m
         burning luck

          E        D
        slow
                 F#m
         burning luck

          E        D      F#m
        slow
         



************************************

 /   up stroke
 \   down stroke
 h   hammer-on
 x   Mute note

************************************

Добавлено: 22.06.2016
Другие материалы по этой песне:
  • Аккорды и текст

Страница создана 22.06.2016
http://primanota.ru/matt-mays/slow-burning-luck-chords.htm
Привет, Гость.
Предлагаем пройти революционный курс по гитаре.
Подарок от PrimaNota.Ru, забирай!